» » »

Apologize Tabs (ver.8)

Artists:  A B C D E F G H I J K L M N O P Q R S T U V W X Y Z # 

Apologize Tabs (ver.8)

Onerepublic
Rating:
0/5 (0 votes)

Hard to play? Try these video lessons and learn fast.
                This is how i play it, and it feels great!


(piano all though out song) :Palm Mute and push hard with fingers on fret for effect of
piano chords
e|-----------------|-1---1---1---1----|----------------|1---1---1---1---|
B|1---1---1---1----|-1---1---1---1----|3---3---3---3---|3---3---3---3---|
G|0---0---0---0----|-1-1-1-1-1-1-1-1--|4---4---4---4---|3-3-3-3-3-3-3-3-|
D|1-1-1-1-1-1-1-1--|------------------|5-5-5-5-5-5-5-5-|----------------|
A|-----------------|------------------|----------------|----------------|
E|-----------------|------------------|----------------|----------------|
  :   :   :   :      :   :   :    :    :   :   :   :    :   :   :   :
 (Vocals) timing isnt correct with the measures but you can hear the meoldy really easy 
w/e verse
e|-----------------|------------------|----------------|----------------|
B|1---1---1--------|------------------|1---1---1-------|----------------|
G|--3---3---3---0--|-3--3--3------0---|--3---3----3--0-|--3--3--3-----0-|
D|-----------------|-----------3------|----------------|-----------3----|
A|-----------------|------------------|----------------|----------------|
E|-----------------|------------------|----------------|----------------|

e|-----------------|------------------|----------------|----------------|
B|1---1---1---4----|-1---1---1--4-4---|---6------------|1---1----1--4---|
G|--3---3----------|---3---3----------|3---------------|--3----3--------|
D|-----------------|------------------|----------------|----------------|
A|-----------------|------------------|----------------|----------------|
E|-----------------|------------------|----------------|----------------|


e|-----------------|----------------|
B|1---1---1---4-4--|---6------------|
G|--3---3----------|3---------------|
D|-----------------|----------------|
A|-----------------|----------------|
E|-----------------|----------------|

Chorus Vocals

e|6-6--------------|----6-6-----------|-6-6------------|---6-6----------|
B|----4-4-1-4-(1)--|------------------|-----4-4-1-4-(1)|----------------|
G|-----------------|------------------|----------------|----------------|
D|-----------------|------------------|----------------|----------------|
A|-----------------|------------------|----------------|----------------|
E|-----------------|------------------|----------------|----------------|

Chorus Guitar

e|--18---20-18-----|---18--20--18-----|---18--20-18----|-16--15-----13--|
B|-----------------|------------------|----------------|----------------|
G|-----------------|------------------|----------------|----------------|
D|-----------------|------------------|----------------|----------------|
A|-----------------|------------------|----------------|----------------|
E|-----------------|------------------|----------------|----------------|


verse 2 guitar part

e|-----------------|------------------|----------------|----------------|
B|-----4-----------|-----4------------|-----4----------|-----4p3h4------|
G|--5--------------|--5---------------|--5-------------|----------------|
D|-----------------|------------------|----------------|----------------|
A|-----------------|------------------|----------------|----------------|
E|-----------------|------------------|----------------|----------------|

solo interlude really let ring during chorus before solo

e|--15----16-----18|-----16-----15-13-|--15----16----18|-----16----15-13|
B|-----------------|------------------|----------------|----------------|
G|-----------------|------------------|----------------|----------------|
D|-----------------|------------------|----------------|----------------|
A|-----------------|------------------|----------------|----------------|
E|-----------------|------------------|----------------|----------------|

Solo shake them fingers to give the violin effect

e|-----------------|------------------|----------------|------11------11|
B|-8/9-9-9-9-9/8-8-|8-8/11-11-11-11/8-|8-8-8/9-9-9-9/8-9-8-9----9-8-9---|
G|-----------------|------------------|----------------|----------------|
D|-----------------|------------------|----------------|----------------|
A|-----------------|------------------|----------------|----------------|
E|-----------------|------------------|----------------|----------------|


e|-----------------|------------------|----------------|------18--------18|
B|15/16-16-16-16/15-15-15-15-15/18-18-18-18/15-15-15-16-15-16---16-15-16--|
G|-----------------|------------------|----------------|------------------|
D|-----------------|------------------|----------------|------------------|
A|-----------------|------------------|----------------|------------------|
E|-----------------|------------------|----------------|------------------|


e|---------18------|----18~---clap your hands---------|-------------------|
B|16-15-16----16-15-16----------------|----------------|------------------|
G|-----------------|------------------|----------------|------------------|
D|-----------------|------------------|----------------|------------------|
A|-----------------|------------------|----------------|------------------|
E|-----------------|------------------|----------------|------------------|

The rest of the song is repeat of tabs above
They are some small fills that you can lose you mind trying to tab
            
Hard to play? Try these video lessons and learn fast. | Correct




comments powered by Disqus
↑ Back to top | Tablatures and chords are parodies/interpretations of the original songs. You may use it for private study, scholarship, research or language learning purposes only