» » »

Apologize Tabs (ver.5)

Artists:  A B C D E F G H I J K L M N O P Q R S T U V W X Y Z # 

Apologize Tabs (ver.5)

Onerepublic
Rating:
4/5 (3 votes)

Hard to play? Try these video lessons and learn fast.
                -------------------------------------------------------------------------------
                           Apologize - One Republic
-------------------------------------------------------------------------------

this tab really sounds with the song.

Tuning: EADGBe

its much easier with capo on the 3rd fred.

e|------------|------------|------------|-------------|
B|--44--4-4---|------4-4---|--44--4-4---|---66--6-6---|
G|-(5)---5-5--|-(5)----5-5-|-(3)---5-5--|--(3)---3-3--|
D|------------|--33--------|------------|-------------|
A|--3---------|------------|--6---------|---5---------|
E|------------|--4---------|------------|-------------|

without capo u can play it also this way:


      Am            F            C            G
e|------------|------------|------------|-------------|
B|--11--1-1---|------1-1---|--11--1-1---|---33--3-3---|
G|-(1)---2-2--|-(2)---2-2--|-(0)---2-2--|--(0)---0-0--|
D|------------|--00--------|------------|-------------|
A|--0---------|------------|--3---------|---2---------|
E|------------|--1---------|------------|-------------|

These chords Am F C G in this order go through the whole song (if u wanna play with the 
u should also have a capo on the 3rd fred)

(x) - doesn’t have to be played, so it makes the playin easier, gl n hf

Queenas ;)
            
Hard to play? Try these video lessons and learn fast. | Correct




comments powered by Disqus
↑ Back to top | Tablatures and chords are parodies/interpretations of the original songs. You may use it for private study, scholarship, research or language learning purposes only