» » »

Apologize Tabs (ver.4)

Artists:  A B C D E F G H I J K L M N O P Q R S T U V W X Y Z # 

Apologize Tabs (ver.4)

Onerepublic
Rating:
4/5 (9 votes)

Hard to play? Try these video lessons and learn fast.
                 0:00-0:47
Guitar 1 only
E|--------------------------------------------------------|      |
B|-4---4--4--4---6---6--6--6---4---4--4--4--3---3--3--3---|      |B
G|---0--0--0--0----0--0--0--0----0--0--0--0---0--0--0--0--|x5    |E
D|--------------------------------------------------------|      |G
A|-3~------------8~------------6~-----------5~------------|      |I
E|--------------------------------------------------------|      |N
                                                                 |N
  play this 6th time                                             |I
E|--------------------------------------------|                  |N
B|-4---4--4--4---6---6--6--6---4---4--4--4----|                  |G
G|---0--0--0--0----0--0--0--0----0--0--0--0---|                  |
D|--------------------------------------------|                  |
A|-3~------------8~------------6~-------------|                  |
E|--------------------------------------------|                  |



GUITAR 1
E|--------------------------------------------------------|      |
B|-4---4--4--4---6---6--6--6---4---4--4--4--3---3--3--3---|      |
G|---0--0--0--0----0--0--0--0----0--0--0--0---0--0--0--0--|x2    |
D|--------------------------------------------------------|      |R
A|-3------3------8------8------6------6-----5------5------|      |E
E|--------------------------------------------------------|      |F
                                                                 |R
GUITAR 2                                                         |A
E|-18----18-20-18-|---16-15-13-|                                 |I
B|----16----------|x3----------|                                 |N
G|----------------|------------|x2                               |
D|-----------------------------|                                 |
A|-----------------------------|                                 |
E|-----------------------------|                                 |


E|--------------------------------------------------------|      |
B|-16----16----16----16-----18----18----18----18----------|      |
G|----15----15----15----15-----15----15----15----15-------|      |B
D|--------------------------------------------------------|      |R
A|-15----------15-----------15----------15----------------|      |I
E|--------------------------------------------------------|      |D
                                                                 |G
E|--------------------------------------------------------|      |E
B|-20----20----20----20-----18----18----18-----16-15-13---|      |
G|----17----17----17----17-----15----15----15-------------|      |
D|--------------------------------------------------------|      |
A|-17----------17-----------15----------15----------------|      |
E|--------------------------------------------------------|      |


GUITAR 1
E|--------------------------------------------------------|      |
B|-4---4--4--4---6---6--6--6---4---4--4--4--3---3--3--3---|      |
G|---0--0--0--0----0--0--0--0----0--0--0--0---0--0--0--0--|      |
D|--------------------------------------------------------|      |V
A|-3------3------8------8------6------6-----5------5------|      |E
E|--------------------------------------------------------|      |R
                                                                 |S
GUITAR 2   comes in at 1:29                                      |E
E|--------------------|----------11-13-------11-13|-------|      |
B|------8-11------8-11|x4--11-13-------11-13------|x4-----|      |
G|-8-10------8-10-----|---------------------------|-------|      |
D|--------------------------------------------------------|      |
A|--------------------------------------------------------|      |
E|--------------------------------------------------------|      |


it goes:
Beginning
Refrain
Bridge
Verse
refrain
bridge twice
refrain twice
            
Hard to play? Try these video lessons and learn fast. | Correct




comments powered by Disqus
↑ Back to top | Tablatures and chords are parodies/interpretations of the original songs. You may use it for private study, scholarship, research or language learning purposes only