» » »

All We Are Tabs (ver.3)

Artists:  A B C D E F G H I J K L M N O P Q R S T U V W X Y Z # 

All We Are Tabs (ver.3)

Onerepublic
Rating:
5/5 (2 votes)

Hard to play? Try these video lessons and learn fast.
                ALL WE ARE-ONE REPUBLIC
INTRODUCTION:-
[GUITAR 1]
e|------2-------------2-----------------2---------------2------5--|
B|------3-------------3-----------------3---------------3---------|
G|---2----2-------2-----2---------2------2-------2----------------|
D|-0--------------------------------------------------------------|
A|-------------3---------------1---------------0------------------|
E|----------------------------------------------------------------|
X 2
[GUITAR 2]
e|--------3------------------3---------------3-----|
B|------------2-----------------2---------------2--|
G|---2----------------2--------------2-------------|
D|-0-----------------------------------------------|
A|-------------------------------------------------|
E|-------------------------------------------------|
          Comes out After played GUITAR 1 the second time
VERSE TWO:-
[GUITAR 1]
e|------2-------------2-----------------2---------------2------5--|
B|------3-------------3-----------------3---------------3---------|
G|---2----2-------2-----2---------2------2-------2----------------|
D|-0--------------------------------------------------------------|
A|-------------3---------------1---------------0------------------|
E|----------------------------------------------------------------|
 X 4
[GUITAR 2]
e|--------3------------------3---------------3-----|
B|------------2-----------------2---------------2--|
G|---2----------------2--------------2-------------|   X4
D|-0-----------------------------------------------|
A|-------------------------------------------------|
E|-------------------------------------------------|
[GUITAR 3]
e|-1/3------3/1p0------------------------------------------------------------------------|
B|------------------------3/1p0----------------------------------------------------------|
G|--------------------------------------3/5----------------------------------------------|
D|---------------------------------------------------------------------------------------|
A|---------------------------------------------------------------------------------------|
E|---------------------------------------------------------------------------------------|
     Comes out After played GUITAR 1 n 2 Twice
PRE CHORUS 1:-
[GUITAR 1]
e|--0--------0-----0------------------0------0----3-3-3-3----|
B|-3--------2------3-------3---------3------3----3-3-3-3-----|
G|-0--------2------2---2-----2------0------2----0-0-0-0------|
D|-2--------2------2--------------2--2------2----2-2-2-2-----|
A|-2--------0------0------------------2------0----3-3-3-3----|
E|-0-----------------------------------0------------x-x-x-x--|
Cause........Apart...............Evrything..are..Arreeeee
CHORUS ONE:-
[GUITAR 1]
e|--2----2----3----3----2----2----3--3--3--3--|
B|----3----3----3----3----3----3--------------|
G|--------------------------------------------| X4
D|--------------------------------------------|
A|--------------------------------------------|
E|--------------------------------------------|
[GUITAR 2]
e|-2--2--2--2--3--3--3--3--2--2--2--2------------------|
B|-3--3--3--3--2--2--2--2--3--3--3--3--3--3--3--3------|
G|-4--4--4--4--0--0--0--0--2--2--2--2--2--2--2--2------|
D|-4--4--4--4--0--0--0--0--0--0--0--0--2--2--2--2------|X4
A|-2--2--2--2--0--0--0--0-----------------0--0--0--0---|
E|-x--x--x--x--3--3--3---3-----------------x--x--x--x--|
[BOTH GUITARS]
e|-3---3----3----3----0-------(0)------(0)----(0)----|
B|-3---3----3----3----3-------(3)------(3)----(3)----|
G|-0---0----0----0----3------(3)------(3)----(3)-----|
D|-2---2----2----2----3-(3)-(3)-(3)-(3)-(3)-(3)-(3)--|
A|-3-3-3-3-3-3-3-3-0------(0)------(0)------(0)------|
E|-0---0-----0---0----0------(0)------(0)------(0)---|
VERSE TWO:-repeat verse 1
PRE CHORUS TWO:- repeat pre chorus 1
CHORUS TWO:- repeat chorus 1
REFRAIN:-Play the ending of CHORUS 1
e|--0--|
B|--2--|
G|--3--| X8 and then play the ending of chorus again
D|--3--|
A|--0--|
E|--x--|
CHORUS THREE:-
[GUITAR]played with piano
e|--2--|      |--3--|        |--2-|     |---------------------|               X4
B|--3--|      |--2--|       |--3-|     |--3-------------------|
G|--4--|X3    |--0--|X3 |--2-|X3 |--2-------------------------|X3
D|--4--|      |--0--|      |--0-|      |--2-------------------|
A|--2--|       |--0--|      |----|       |--0-----------------|
E|--x--|        |--3--|     |----|        |-X-----------------|
[GUITAR 1]Play ending of CHORUS 1 Twice
[GUITAR 2]
e|--0--|
B|--3--|
G|--3--|   X8  play at the last chord of GUITAR 1
D|--3--|
A|--0--|
E|--X--|
CHORUS FOUR:-Repeat chorus 2

Fade out ending
END
            
Hard to play? Try these video lessons and learn fast. | Correct




comments powered by Disqus
↑ Back to top | Tablatures and chords are parodies/interpretations of the original songs. You may use it for private study, scholarship, research or language learning purposes only