» » »

One Piece, We Are Tabs (ver.1)

Artists:  A B C D E F G H I J K L M N O P Q R S T U V W X Y Z # 

We Are Tabs (ver.1)

One Piece Tabs
Rating:
0/5 (0 votes)
We Are lessons Tabs too difficult? Try these video lessons and learn fast
                (Intro)
One Piece OP 1: We Are!!!
Ive been a fan of One Piece and suddenly went into guitar, so Ive decided to at least 
make a cover of my favourite anime's first OP's Intro..
Hope you like it :DD
(TUNING STANDARD)

------------------------------------------------------------------------|
------------------------------------------------------------------------|
----------1---x-1--------4--4-x---4--4--------------2---2---2---2---2---|
----------2-2-x-2----0h2-4--4-x---4--4--4-4---7--5--2---2---2---2---2---|
--2-2-2---2---x-2-2------2----x--2---2--------5--4--0--0---0---0---0----|
---------------------------------------------------------------------0--|


------------------------------------------------------------------------|
------------------------------------------------------------------------|
----------1---x-1--------4--------------2-2-2-2--2--2--2--2------1~-----|
----------2-2-x-2----0h2-4---4--4s7--5--4-2-4-2--2--2--2--2---4--2~-----|
--2-2-2---2---x-2-2------2------2s5--4--0---0---0--0--0--0----5--2~-----|
-----------------------------------------------------------0------------|
                                                             ONE PIECE!! ;D
            

comments powered by Disqus
↑ Back to top | One Piece Tabs for We Are. Lyrics for acoustic guitar and electric guitar. Tablatures and chords are parodies/interpretations of the original songs. You may use it for private study, scholarship, research or language learning purposes only