» » »

Overtaken Bass tabs (ver.1)

Artists:  A B C D E F G H I J K L M N O P Q R S T U V W X Y Z # 

Overtaken Bass tabs (ver.1)

One Piece
Rating:
4/5 (1 vote)

Hard to play? Try these video lessons and learn fast.
                One piece soundtrack

Basstab by Gustavo02


Actually this is the main voice of the song, adapted to bass. You can play it one octave 
, I probably will upload some covers of one piece there.

First and second parts:

G|--------------------5-----------|  |----9---7-----------------------|
D|7---7---5-------5-----7---------|  |7-------------------5-7---------|
A|------------------7-------------|  |--------------------------------|
E|--------------------------------|  |--------------------------------|


After the strings part:

G|--------------------5-----------|  |----9---12---9-7--------------7-|
D|7---7---5-------5-----7---------|  |7--------------------------10---|
A|------------------7-------------|  |--------------------------------|
E|--------------------------------|  |--------------------------------|

G|9-----9-9-------7-----7-7-------|  |--------------------------------|
D|--7-7-------------5-5-----------|  |----10-9-7----------------------|
A|--------------------------------|  |-----------10-8--7--------------|
E|--------------------------------|  |--------------------------------|
(this is played twice, one time after each string part)


Ending:

G|--------------------5-----------|
D|7---7---5-------5-----7---------|
A|------------------7-------------|
E|--------------------------------|  x2
            
Hard to play? Try these video lessons and learn fast. | Correct




comments powered by Disqus
↑ Back to top | Tablatures and chords are parodies/interpretations of the original songs. You may use it for private study, scholarship, research or language learning purposes only