» » »

Overtaken Bass

Artists:  A B C D E F G H I J K L M N O P Q R S T U V W X Y Z # 

Overtaken Bass

(ver. 2)
One Piece Tabs
 Rating:
4.2/5 (5 votes)
    Overtaken lessons Tabs too difficult? Try these video lessons and learn fast
                --------------|----------|
---------2----|--2-------|
-----------3--|----5-----|
5-5-3--3-----5|-5-----3-5|

--------------|---------------------------------|
---------2----|---2-5-2-0---0-2-------22-0----00|
-----------3--|-----------3---------------------|
5-5-3--3-----5|-5---------------555-------333---|

-------------------------------------|
-------------------------------------|
3-1-3-1-----------------------5-3--45|
--------5-3--3-0--0-3-4-5--3---------|
            
Submit corrections

↑ Back to top | One Piece Bass for Overtaken. Lyrics for acoustic guitar and electric guitar. Tablatures and chords are parodies/interpretations of the original songs. You may use it for private study, scholarship, research or language learning purposes only