» » »

One Piece, Binks Sake Tabs (ver.2)

Artists:  A B C D E F G H I J K L M N O P Q R S T U V W X Y Z # 

Binks Sake Tabs (ver.2)

One Piece Tabs
 Rating:
4.2/5 (5 votes)
Binks Sake lessons Tabs too difficult? Try these video lessons and learn fast
1
                                                  Bink's sake

--0---3333------5--3---0---3------0---3333-----5--3----0---------------------|
----------------------------------------------------------1--0---------------|
------------------------------------------------------------------2----------|
-----------------------------------------------------------------------------|
--3--------------------3----------3--------------------3---------------------|
------------3-----------------3-------------3--------------------------------|


---0---3333-------5-3--0---3--------0---3333--------5--3----0----------------|
---------------------------------------------------------------1-------------|
-----------------------------------------------------------------------------|
------------------------------------0----------------------------------------|
---3---------2---------1-------0----------------------------3----------------|
-----------------------------------------------3------------------3----------|



--3---0------------------------3--0------------------------------------------|
----------3--1-------0--1------1----3--1------1-----------1------------------|
-------------------------------0-----------------0------------0--------------|
-----------------3-------------2-----------3----------3----------------------|
--3----------------------------3-----------------3------------3--------------|
-----------------------------------------------------------------------------|


------------1----0---00------------------------------------------------------|
------0--1-------3---------3-1---1-------------------------------------------|
-----------------2-----------------------------------------------------------|
---3-------------0---------------------0--0----------------------------------|
---------------------------------------2--0----------------------------------|
---------------------------------3-----3-------------------------------------|



--3---0-------------------3--0--------------------------------------1----0---|
---------3--1-------0-1---1----3--1------1---------1------------0-1------3---|
--------------------------0-----------------0----------0-----------------2---|
----------------3---------2----------3---------3------------3------------0---|
--3-----------------------3-----------------3----------3---------------------|
-----------------------------------------------------------------------------|

---0---3--------------3--0-----------------------3--0------------------------|
-----------0---1-------------3--1-------0---1-----------3--1------1----------|
----------------------------------------------------------------------0------|
------------------------------------3-------------------------3--------------|
---------------3------3--------------------------3--------------------3------|
-------3---------------------------------------------------------------------|



------------------------1----0----00-----------------------------------------|
-------1-----------0--1------3---------3-1---1-------------------------------|
----------0------------------2-----------------------------------------------|
---3-----------3-------------0-------------------0---0-----------------------|
----------3--------------------------------------2---0-----------------------|
---------------------------------------------3---3---------------------------|


--3---0------------------3--0---------------------------------1-----0---0----|
---------3--1------0-1---1----3--1-----1---------1--------0-1-------3--------|
-------------------------0---------------0----------0---------------2--------|
---------------3---------2----------3--------3---------3------------0--------|
--3----------------------3---------------3----------3------------------------|
-----------------------------------------------------------------------------|



---0--------3----------------------------------------------------------------|
-------0----1----------------------------------------------------------------|
------------0----------------------------------------------------------------|
------------2----------------------------------------------------------------|
------------3----------------------------------------------------------------|
---3-------------------------------------------------------------------------|
            
Submit corrections

comments powered by Disqus
↑ Back to top | One Piece Tabs for Binks Sake. Lyrics for acoustic guitar and electric guitar. 1 Tablatures and chords are parodies/interpretations of the original songs. You may use it for private study, scholarship, research or language learning purposes only