» » »

One Day As A Lion, If You Fear Dying Tabs (ver.2)

Artists:  A B C D E F G H I J K L M N O P Q R S T U V W X Y Z # 

If You Fear Dying Tabs (ver.2)

One Day As A Lion Tabs
Rating:
3/5 (1 vote)
If You Fear Dying lessons Tabs too difficult? Try these video lessons and learn fast
                Band: One Day As A Lion
Tuning: Drop d

For this song, use a DigiTech Whammy and set
it down 1 octave, with the whammy pedal in.( toe in.)
                                                          




Intro:   X8       0:45
e|----------------------------|
b|----------------------------|
g|----------------------------|
d|-(3)-----4--2h3--(3)-----4--|
a|----------------------------|
d|----3--3------------3--3----|




Riff 1:   X8      0:24           Verse:   X1     0:04       
e|-----------------------------||-------------------------|
b|-----------------------------||-------------------------|
g|-----------------------------||-------------------------|
d|-----------------------------||------4--2h3--(3)-----4--|
a|-----------------------------||-------------------------|
d|-3--3--3--3--3--3-3--3-3---3-||-3--3------------3--3----|




                                  Verse Outro:
             X3        0:18        X4   0:24
e|----------------------------||----------------|
b|----------------------------||----------------|
g|----------------------------||----------------|
d|-(3)-----4--2h3--(3)-----4--||-(3)------------|
a|----------------------------||----------------|
d|----3--3------------3--3----||----3--3--------|




Riff 2:   X16          0:46
e|-----------------------------|
b|-----------------------------|
g|-----------------------------|
d|-----------------------------|
a|-----------------------------|
d|-3--3--3--3--3--3-3--3-3---3-|




                                                     End on this
Outro:   X6                        1:10               X1   0:07       
e|-------------------------------------------------||------------|
b|-------------------------------------------------||------------|
g|-------------------------------------------------||------------|
d|-------------------------------------------------||------------|
a|-----------------------10h11-10-11--10--11----11-||------------|
d|-3--3----3-4-3----3-3----------------------------||-3--3-------|


Thats it! Enjoy!

|----------------|
| Guitar Key:    |
|                |
| h=Hammer on    |
|(#)= Ghost note |
|----------------|

-----------------------------
 Full time of song  3:58
-----------------------------
Intro: 45 seconds
Riff 1: 24 seconds
Verse: 22 seconds
Verse Outro: 24 seconds
Riff 2: 46 seconds           
Outro: 1 minute & 17 seconds 
-------------------------------
            
Submit corrections

comments powered by Disqus
↑ Back to top | One Day As A Lion Tabs for If You Fear Dying. Lyrics for acoustic guitar and electric guitar. Tablatures and chords are parodies/interpretations of the original songs. You may use it for private study, scholarship, research or language learning purposes only