» » »

One Day As A Lion, If You Fear Dying Tabs (ver.1)

Artists:  A B C D E F G H I J K L M N O P Q R S T U V W X Y Z # 

If You Fear Dying Tabs (ver.1)

One Day As A Lion Tabs
 Rating:
4.3/5 (6 votes)
If You Fear Dying lessons Tabs too difficult? Try these video lessons and learn fast
1
                ---------------------------------------------------------------------------
------------------------------------------------------------------------

OneDayAsaLion.org

Tuning:Standard

This song is played by keyboards, but you can get a similar sound by setting a whammy 
an octave down, and adding distortion the whole time. You might be able to just use a bass 
Standard tuning with distortion, but I haven't tried it. It would really depend
on the dist you use.

e|---------------|----------------|
B|---------------|----------------|
G|---------------|----------------|
D|-(3)----4-2-3--|-(3)----4-------|  8X
A|---------------|----------------|
E|----1-1--------|----1-1---------|

e|---------------|----------------|
B|---------------|----------------|
G|---------------|----------------|
D|---------------|----------------|  4X
A|---------------|----------------|
E|--1-1-1-1-x-1--|--1-1-1-1-x--1--|

e|--------------|-----------------|
B|--------------|-----------------|
G|--------------|-----------------|
D|-------4-2-3--|-(3)----4--------|  1X
A|--------------|-----------------|
E|--1-1---------|----1-1----------|


e|---------------|----------------|
B|---------------|----------------|
G|---------------|----------------|
D|-(3)----4-2-3--|-(3)----4-------|  3X
A|---------------|----------------|
E|----1-1--------|----1-1---------|


e|---------------|----------------|
B|---------------|----------------|
G|---------------|----------------|
D|--(3)----------|----------------|  4X
A|---------------|----------------|
E|-----1-1-------|----------------|

e|---------------|----------------|
B|---------------|----------------|
G|---------------|----------------|
D|---------------|----------------|  8X
A|---------------|----------------|
E|--1-1-1-1-x-1--|--1-1-1-1-x--1--|

e|------------------|------------------------------------|
B|------------------|------------------------------------|
G|------------------|----------0h1-0h1--0--1---1-(1)-----|
D|------------------|------------------------------------| 6X
A|------------------|------------------------------------|
E|--1-1----1-2-1----|----1-1-----------------------------|

e|------------------|
B|------------------|
G|------------------|
D|------------------| 1X
A|------------------|
E|--1---------------|

Key

h- hammer

()- ghost note
            
Submit corrections

comments powered by Disqus
↑ Back to top | One Day As A Lion Tabs for If You Fear Dying. Lyrics for acoustic guitar and electric guitar. 1 Tablatures and chords are parodies/interpretations of the original songs. You may use it for private study, scholarship, research or language learning purposes only