» » »

O.K. Go, There A Fire Bass tabs (ver.1)

Artists:  A B C D E F G H I J K L M N O P Q R S T U V W X Y Z # 

There A Fire Bass tabs (ver.1)

O.K. Go Tabs
Rating:
0/5 (0 votes)
There A Fire lessons Tabs too difficult? Try these video lessons and learn fast
                Heya! Here’s an easier version of Theres A Fire... it repeats all the way through, so have fun!

G -----------------------------------------------------------------------------------------
D --------------1412-2-2--------------------------------1412-2-2-------------------
A -------2234------------2234-4-4-2-----------2234------------2234-4-4-2----
E 0-0-0----------------------------------420-0-0----------------------------------42

G --------------------------------------------------------------------------------------------
D --------------1412-2-2--------------------------------1412-2-2----------------------
A -------2234------------2234-4-4-2-----------2234------------2234-4-4-2-------
E 0-0-0----------------------------------420-0-0----------------------------------420


Yeah, it repeats all the way through...Heya! Here’s an easier version of Theres A Fire... have fun!

G [------------------------------------------------]---------------------------------------------[-----------------
D [------------------1412-2-2-------------------]-----------------1412-2-2-----------------[-----------------
A [------2234-4-4------------2234-4-4-2-----]------2234-4-4------------2234-4-4-2---[------2234-4-4-
E  [0-0-0--------------------------------------42]0-0-0------------------------------------42[0-0-0---------

G -------------------------------]-----------------------------------------------[----------------------------------
D -1412-2-2-------------------]------------------1412-2-2------------------[--------------------1412-2-2-
A ------------2234-4-4-2-----]-------2234-4-4------------2234-4-4-2----[-------2234-4-4--------------
E  ---------------------------42]0-0-0--------------------------------------42[0-0-0--------------------------

G ------------------]-------------------------------------------------[--------------------------------------------
D ------------------]-------------------1412-2-2-------------------[-------------------1412-2-2--------------
A 2234-4-4-2----]--------2234-4-4------------2234-4-4-2---[--------2234-4-4----------------234-4-4-
E ---------------42]0-0-0--------------------------------------42[0-0-0---------------------------------------

G -----]-----------------------------------------------[------------------------------------------------]------
D -----]---------------1412-2-2---------------------[----------------1412-2-2---------------------]------
A 2---]-----2234-4-4------------2234-4-4-2------[-----2234-4-4------------2234-4-4-2------]-------
E  -42]0-0-0--------------------------------------42[0-0-0--------------------------------------42]0-0-0

Yeah, it repeats all the way through...
            

comments powered by Disqus
↑ Back to top | O.K. Go Bass for There A Fire. Lyrics for acoustic guitar and electric guitar. Tablatures and chords are parodies/interpretations of the original songs. You may use it for private study, scholarship, research or language learning purposes only