>
 >
There A Fire

There A Fire Guitar Tabs

O.K. Go - There A Fire chords, tabs, tablatures, lyrics

Guitar lessons | Add/correct | Request | Top 50 tabs Artists:  A B C D E F G H I J K L M N O P Q R S T U V W X Y Z 0-9

There A Fire Guitar Tabs – O.K. Go

CD, Sheet music, Poster

Do you like There A Fire? Share with your friends now
Tabs
Ok Go - There a Fire.
Intro: GuitarI
e----------------------------------------------------------------------|
B----------------------------------------------------------------------|
G--1--1--1-------------------------------------------------------------|
D--2--2--2--4--4--5--6--6--6--8--11--8--9--9--9--9--9--10--11--11--11--|
A--2--2--2--2--2--3--4--4--4--6--9---6--7--7--7--9--9--10--11--11--11--|
E-----------2--2--3--4--4--4--6--9---6--7--7--7--7--7---8---9---9---9--|

e---------------|
B---------------|
G-----------1---|
D--9--6--4--2---|
A--9--6--4--2---|
E--7--4--2------|

 GuitarII:
e|--------------------|
B|--------------------|
G|----9-99-9-99-99----|(4x)
D|--------------------|
A|--------------------|
E|--------------------|




Verse:
GuitarI: 
e|--------7-7--7-7--77----------------|
B|--------9-9--9-9--99----(8x)--------|
G|--------9-9--9-9--99----------------|
D|------------------------------------|
A|------------------------------------|
E|------------------------------------|

GuitarII: 
e|--------------------|
B|--------------------|
G|----9-99-9-99-99----|(8x)
D|--------------------|
A|--------------------|
E|--------------------|

Chorus:
GuitarI: 
e|--------7-7--7-7--77----------------| 
B|--------9-9--9-9--99----(4x)--------|
G|--------9-9--9-9--99----------------|
D|------------------------------------|
A|------------------------------------|
E|------------------------------------|

GuitarII: 
e|--------------------|
B|--------------------|
G|----9-99-9-99-99----|(4x)
D|--------------------|
A|--------------------|
E|--------------------|

Keyboard Solo:

GuitarI:
e|---------------------------------------------------------------|
B|---------------------------------------------------------------|
G|--17-17-17-17-15-17-17-17-15-13-12-13-13-13-13-13-15-15-15-15--|
D|---------------------------------------------------------------|
A|---------------------------------------------------------------|
E|---------------------------------------------------------------|

e|------------------------------------------------------------------|
B|------------------------------------------------------------------|
G|---17-17-17-17-15-17-17-17-15-13-12-13-13-13-13-13-12-12-12-12----|
D|------------------------------------------------------------------|
A|------------------------------------------------------------------|
E|------------------------------------------------------------------|

while the first guitar plays the solo, The second play:

e|--------7-7--7-7--77----------------| 
B|--------9-9--9-9--99----(4x)--------|
G|--------9-9--9-9--99----------------|
D|------------------------------------|
A|------------------------------------|
E|------------------------------------|

[verse]

Chorus2:
GuitarI
e|------------------------------|  ~ = Hold
B|------------------------------|
G|-1~---------------------------|
D|-2~---4~---6~---4~------------|
A|-2~---2~---4~---2~------------|
E|------2~---4~---2~------------|

e|-------------------------------------|
B|-------------------------------------|
G|-1~-----------------1~~~-------------|
D|-2~---4~---6~---4~--1~~~-------------|
A|-2~---2~---4~---2~--2~~~-------------|
E|------2~---4~---2~-------------------|

GuitarII:
e|--------7-7--7-7--77----------------|
B|--------9-9--9-9--99----(4x)--------|
G|--------9-9--9-9--99----------------|
D|------------------------------------|
A|------------------------------------|
E|------------------------------------|

I never say quite what I mean, and never mean quite what I say,
and how did that get out of me, and what the hell did I mean to
say?

GuitarII:
e|--------7-7--7-7--77----------------|
B|--------9-9--9-9--99----(4x)--------|
G|--------9-9--9-9--99----------------|
D|------------------------------------|
A|------------------------------------|
E|------------------------------------|

"There a Fire, There a fire. (the first guitar does not play only the second)

[Solo Keyboard]

[verse]

[chorus] 

End:

GuitarI:
e|--------7-7--7-7--77----------------|
B|--------9-9--9-9--99----(16x)-------|
G|--------9-9--9-9--99----------------|
D|------------------------------------|
A|------------------------------------|
E|------------------------------------|

GuitarII: 
e|--------------------|
B|--------------------|
G|----9-99-9-99-99----|(16x)
D|--------------------|
A|--------------------|
E|--------------------|

There's a fire. There's a fire Uou.

information of music:

Intro.
Verse.
Chorus.
Solo.
Verse.
Chorus.
Solo
Verse.
Chorus.
End.


Thaks for Reading.





Comments


Popular O.K. Go tabs & chords
A Million Ways 2 Bass Tabs
Back From Kathmandu Chords
End Love 1 Chords
Shooting The Moon 1 Chords
Shooting The Moon 2 Chords
Get Over It 2 Tabs
Here It Goes Again Tabs
Skyscrapers Tabs
Oh Lately Its So Quiet Ukulele
Shooting The Moon Ukulele


Song lyrics



↑ Back to top | Tablatures and chords are parodies/interpretations of the original songs. You may use it for private study, scholarship, research or language learning purposes only
© 2014 AZChords.com Contact us | Privacy policy | DMCA | Add/correct tabs | Request tabs | Top 50 tabs