» » »

Oingo Boingo, Little Girls Bass tabs (ver.1)

Artists:  A B C D E F G H I J K L M N O P Q R S T U V W X Y Z # 

Little Girls Bass tabs (ver.1)

Oingo Boingo Tabs
 Rating:
3.5/5 (8 votes)
Little Girls lessons Tabs too difficult? Try these video lessons and learn fast
                This song is near impossible to memorize. Good luck trying. This was tabbed from the 
vinyl, The CD version is a tiny bit different but it's very hard to notice the difference anyway.

G-----------------------------------------------------|
D-----------------------------------------------------|  x3
A-4-4-4-4-4-4-4-4-4-4-4-4-4-4-4-4-1-1-1-1-0h1-1-1-----|
E-------------------------------------------------2-4-|

G---------------------------------|
D-----------------3-3---6-6-6-6-6-|  x1
A---1-4-4-6-6---4-----4-----------|
E-2-----------6-------------------|

G-----------------------------------------------------|
D-----------------------------------------------------|  x4
A-4-4-4-4-4-4-4-4-4-4-4-4-4-4-4-4-1-1-1-1-0h1-1-1-----|
E-------------------------------------------------2-4-|


G---------------------------------------6-------|
D-----------------3-3-----------3---------------|
A---1-4-4-6-6---4-----4---3-6-6---6-4-4---4-4-4-| x1
E-2-----------6---------4-----------------------|

G-------------------------------------------|
D-4-4--4-4--4-4--4-4--4-4--4-4----------4---|
A-------------------------------6-6-------6-| x1
E-----------------------------------4-6-----|

G-------------------------------------------|
D-4-4--4-4--4-4--4-4--4-4--4-4--------4-----|  x1
A-------------------------------6-6-4---6-4-|
E-------------------------------------------|

G---------------------------------------------------------------|
D-------------------1------------------2----------------------3-| x1
A---------------------------------------------------------------|
E-4-4-4-4-4-4-4-4-3----4-4-4-4-4-4-4-4---3--4-4-4-4-4-4-4-4-3---|

G----------------------------------------------|
D----------------------------------------------|
A-----------------11-11-11-11-11--/11-11-11-11-| x1
E-4-4-4-4-4-4-4-4------------------------------|

G-----------------------------------------------------|
D-----------------------------------------------------|  x4
A-4-4-4-4-4-4-4-4-4-4-4-4-4-4-4-4-1-1-1-1-0h1-1-1-----|
E-------------------------------------------------2-4-|

G---------------------------------------6-------|
D-----------------3-3-----------3---------------|
A---1-4-4-6-6---4-----4---3-6-6---6-4-4---4-4-4-| x1
E-2-----------6---------4-----------------------|

G-------------------------------------------|
D-4-4--4-4--4-4--4-4--4-4--4-4----------4---|
A-------------------------------6-6-------6-| x1
E-----------------------------------4-6-----|

G-------------------------------------------|
D-4-4--4-4--4-4--4-4--4-4--4-4--------4-----|  x1
A-------------------------------6-6-4---6-4-|
E-------------------------------------------|

G------------------------|
D-4-4--4-4---------------|
A-----------6-6-6-6-6-6\-| x1
E------------------------|

G---------------------------------------------------------------|
D-------------------1------------------2----------------------3-| x1
A---------------------------------------------------------------|
E-4-4-4-4-4-4-4-4-3----4-4-4-4-4-4-4-4---3--4-4-4-4-4-4-4-4-3---|

G-----------------------------------------------|
D-----------------------------------------------|
A------------------11-11-11-11-11--/11-11-11-11-| x1
E-4-4-4-4-4-4-4-4-------------------------------|

G-------------------------------------------3-4-5-----|
D-------------------------------------------------3---|
A-----------------4-4-4-4-4-4-4-4-------------------3-| x3
E-6-6-6-6-6-6-6-6-----------------2-2-2-2-2-----------|

G------------------------------------|
D------------------------------------| x1
A-----------------4-4-4-4-4-4-4-4-4\-|
E-6-6-6-6-6-6-6-6--------------------|

G-------------------------------------------7-7-----7\-|
D-----------------------------------7---5-5-----5-5----|
A-------------------------5-5-5-5-5---5----------------| x1
E-2-2-2-2-2-2-5-5-5-5-5-5------------------------------|

G------------------------------------------------|
D------------------------------------------------| x1
A---6-6h9-6---6-6h9-6---6-6h9-6--/11-11-11-11-11-|
E-7---------7---------7--------------------------|

G-----------------------------------------------------|
D-----------------------------------------------------|  x2
A-4-4-4-4-4-4-4-4-4-4-4-4-4-4-4-4-1-1-1-1-0h1-1-1-----|
E-------------------------------------------------2-4-|

G---------------------------------------6-----|
D-----------------3-3-----------3-------------|
A---1-4-4-6-6---4-----4---3-6-6---6-4-4---4-4-| x1
E-2-----------6---------4---------------------|

G-------------------------------------------|
D-4-4--4-4--4-4--4-4--4-4--4-4----------4---|
A-------------------------------6-6-------6-| x1
E-----------------------------------4-6-----|

G-------------------------------------------|
D-4-4--4-4--4-4--4-4--4-4--4-4--------4-----|  x1
A-------------------------------6-6-4---6-4-|
E-------------------------------------------|

G-------------------------------------------|
D-4-4--4-4--4-4--4-4--4-4--4-4----------4---|
A-------------------------------6-6-------6-| x1
E-----------------------------------4-6-----|

G---------------------------------------------|
D-4-4--4-4--4-4--4-4--4-4--4-4----------------|  x1
A-------------------------------6-6-6-6-6--6\-|
E---------------------------------------------|

G---------------------------------------------------------------|
D-------------------1------------------2----------------------3-| x1
A---------------------------------------------------------------|
E-4-4-4-4-4-4-4-4-3----4-4-4-4-4-4-4-4---3--4-4-4-4-4-4-4-4-3---|

G----------------------------------------------|
D----------------------------------------------|
A-----------------11-11-11-11-11--/11-11-11-11-| x1
E-4-4-4-4-4-4-4-4------------------------------|

G-----------------------------------------------------|
D-----------------------------------------------------|  x4
A-4-4-4-4-4-4-4-4-4-4-4-4-4-4-4-4-1-1-1-1-0h1-1-1-----|
E-------------------------------------------------2-4-|

G-6---
D-----
A---4- x1
E-----
            
Submit corrections

comments powered by Disqus
↑ Back to top | Oingo Boingo Bass for Little Girls. Lyrics for acoustic guitar and electric guitar. Tablatures and chords are parodies/interpretations of the original songs. You may use it for private study, scholarship, research or language learning purposes only