» » »

Weird Science Bass

Artists:  A B C D E F G H I J K L M N O P Q R S T U V W X Y Z # 

Weird Science Bass

(ver. 1)
Oingo Boingo Tabs
 Rating:
4.3/5 (6 votes)
    Weird Science lessons Tabs too difficult? Try these video lessons and learn fast
                    This is the Bass tab for the Oingo Boingo song "Weird Science"
I've split the tab into sections:

    (Intro/Solo)
E:  ------4-5---------4-5-----------4-5---------4-5---------|
A:  2222-2------2222-2--------2222-2------2222-2------------|
D:  ----------------------7-69----------------------7-6h7p6-|
G:  --------------------------------------------------------|

E:  ------4-5---------4-5-----------4-5---------5----------|
A:  2222-2------2222-2--------2222-2------2222-2-----------|
D:  ----------------------7-69-----------------------------|
G:  -------------------------------------------------------|




    (Verses)
E:  ------5-----------5-------------4-5---------5----------|
A:  2222-2------2222-2--------2222-2------2222-2-----------|
D:  -------------------------------------------------------|
G:  -------------------------------------------------------|(x4)




    (Chorus)
E:  -----7-8----------7-8-0-2---------7-8---------7-8-0-2---|
A:  5------------5-------------8-5-----------5------------4-|
D:  --------------------------------------------------------|
G:  --------------------------------------------------------|
            
Submit corrections

↑ Back to top | Oingo Boingo Bass for Weird Science. Lyrics for acoustic guitar and electric guitar. Tablatures and chords are parodies/interpretations of the original songs. You may use it for private study, scholarship, research or language learning purposes only