» » »

The Finisher Tabs (ver.2)

Artists:  A B C D E F G H I J K L M N O P Q R S T U V W X Y Z # 

The Finisher Tabs (ver.2)

Oh Sleeper
Rating:
0/5 (0 votes)

Tabs too difficult? Try these video lessons and learn fast.
                Oh, Sleeper "The Finisher" solo

 4/4
   
E|--10-5-------5-8-5-------5-6-5-----------------5-6-5-8-5-------5---|
B|-------6---6-------6---6-------6-------------6-----------6---8-----|
G|---------7-----------7-----------7---------7---------------7-------|
D|-----------------------------------8-----7-------------------------|
A|-------------------------------------5-8---------------------------|
D|-------------------------------------------------------------------|



E|15-10----------10-13-10----------10-11-10-------------------------10-11-10-13-10----------10---|
B|------11----11----------11----11----------11-------------------11----------------11----13------|
G|---------12----------------12----------------12-------------12----------------------12---------|
D|------------------------------------------------13-------12------------------------------------|
A|---------------------------------------------------10-13---------------------------------------|
D|-----------------------------------------------------------------------------------------------|



E|--13-8----------8-13-8----------8-13-8------------------------8-13-8-13-8----------8---|
B|-------10----10--------10----10--------10------------------10-------------10----10-----|
G|----------10--------------10--------------10------------10-------------------10--------|
D|---------------------------------------------10------10--------------------------------|
A|------------------------------------------------12-8-----------------------------------|
D|---------------------------------------------------------------------------------------|


E|--9-6-------6-12-9----------9-15-12----------12-18-15----------15-21-18----------18-20-18----|
B|------8---8--------11----11---------14----14----------17----17----------20----20----------18-|
G|--------9-------------12---------------15----------------18----------------21----------------|
D|---------------------------------------------------------------------------------------------|
A|---------------------------------------------------------------------------------------------|
D|---------------------------------------------------------------------------------------------|
            
Tabs too difficult? Try these video lessons and learn fast.


comments powered by Disqus
↑ Back to top | Tablatures and chords are parodies/interpretations of the original songs. You may use it for private study, scholarship, research or language learning purposes only