>
 >
The Finisher

The Finisher Guitar Tabs

Oh Sleeper - The Finisher chords, tabs, tablatures, lyrics

Guitar lessons | Add/correct | Request | Top 50 tabs Artists:  A B C D E F G H I J K L M N O P Q R S T U V W X Y Z 0-9

The Finisher Guitar Tabs – Oh Sleeper

CD, Sheet music, Poster

Do you like The Finisher? Share with your friends now
Bass TabsTabsTabs v2Tabs v3
The Finisher ||| Oh, Sleeper


-------------------
P = pull off
H = hammer on
/ = slide
~ = Hold
-------------------


Intro
1st guitar
_______________________________________________________
|e|-----6p5-------6p5------5---5-------                | 
|B|---------3---------3----------------                |
|G|-----------3~--------3~---3---------  X2            | 
|d|------------------------------------                |
|A|------------------------------------                |
|D|------------------------------------                | 
|e|--13p12---------13p12---------12-----12------       |
|B|--------10------------10---------------------       |
|G|-----------10~-----------10~------10---------  X2   |
|d|---------------------------------------------       |
|A|---------------------------------------------       |
|D|---------------------------------------------       |
|______________________________________________________|

2nd guitar under 1st/ intro
e|----------------------------------|
B|----------------------------------|
G|----------------------------------| X2 (second time leave off second set 
d|----------------------------------|                of 8s)
A|--0~~---0~~----8~~----8~~---------|
D|--0~~---0~~----8~~----8~~---------|

Verse One
e|-------------------------------|  
B|-------------------------------|
G|-------------------------------|   (1st guitar = X4 / 2nd guitar = X8)
d|--8-----7-----8-----7-----7----|
A|----------5-----------5--------|
D|----0-0-----0---0-0-----0---8--|

1st guitar under 2nd guitar / second half of Verse One
(first notes of next part down ends this rhythm then into the chorus. Happens quickly
e|--------------------------|      e|--------------------------------|  
B|--------------------------|      B|--------------------------------|
G|--------------------------|  X3  G|--------------------------------| 
d|--------------------------|      d|--------------------------------| 
A|--------------------------|      A|--------------------------------|
D|--0000--0--0000--0-0000---|      D|--0000--0--0000--0--------------|


Chorus
(*Both Guitars* - Palm mute first two notes. Strum the rest over the whole chorus.)
e|--------------------------|  
B|--------------------------| 
G|--------------------------|
d|--------3--2--0--3--3--0--|
A|--------3--3--0--3--2--0--|
D|--0--0--3--2--0--3--3--0--|

Verse Two
e|------------------------------|  
B|------------------------------|
G|------------------------------| X4
d|--8-----7-----8-----7-----7---|
A|----------5-----------5-------|
D|----0-0-----0---0-0-----0---8-|

1st guitar under second/ Verse Two
e|-------------------------|                 
B|-------------------------|                 
G|-------------------------|  X4       
d|-------------------------|                 
A|-------------------------|                 
D|--0000--0--0000--0-0000--|                 

Both 1st and 2nd guitar/ second half of Verse Two
e|---------------|     
B|---------------|     
G|---------------|     
d|---------------|     
A|---------------|     
D|-7h8h10/12--0--|     

e|---------------------------------------------------------------|
B|---------------------------------------------------------------|
G|---------------------------------------------------------------|  X3
d|---------------------------------------------------------------|
A|------------8h10h12/13---7h8h10/12----------------7h8h10/12----|
D|-7h8h10/12--------------------------0--7h8h10/12-------------0-|

e|---------------------------------------------------|  
B|---------------------------------------------------|
G|---------------------------------------------------|   
d|---------------------------------------------------|
A|------------8h10h12/13---7h8h10/12-----------------|
D|-7h8h10/12--------------------------0--7h8h10/12---|

1st guitar/ bridge
e|--------------------------|
B|--------------------------|
G|--------------------------|
d|--------------------------|
A|--------------------------|
D|-00000---0000-0000--00000-|

e|-------------------------------------------------------------|
B|-------------------------------------------------------------|
G|-------------------------------------------------------------|
d|-------------------------------------------------------------|
A|-------------------------------------------------------------|
D|-22222--2222--2222-22222---33333--3333--3333--33333---33333--|

(* equals an 11th fret. I put it because it would just be 11111111 
if I didnt)
e|------------------------------------|
B|------------------------------------|
G|------------------------------------|           
d|------------------------------------|
A|------------------------------------|
D|--*****---****-****-*****---*****---|

2nd guitar under 1st/ Bridge
e|-----------------------------| 
B|-----------------------------|
G|-----------------------------|
d|---7~-----9~-----10~-----6~--|
A|---5~-----7~-----8~------4~--|
D|-----------------------------|

1st guitar/ Solo
E|-10-5-------5-8-5-------5-6-5-----------------5-6-5-8-5-------5--|
B|------6---6-------6---6-------6-------------6-----------6---6----|
G|--------7-----------7-----------7---------7---------------7------|
D|----------------------------------8-----7------------------------|
A|------------------------------------5-8--------------------------|
D|-----------------------------------------------------------------|



E|15-10----------10-13-10----------10-11-10----------|
B|------11----11----------11----11----------11-------|
G|---------12----------------12----------------12----|
D|------------------------------------------------13-|
A|---------------------------------------------------|
D|---------------------------------------------------|

E|----------------10-11-10-13-10----------10--|
B|-------------11----------------11----11-----|
G|----------12----------------------12--------|
D|-------12-----------------------------------|
A|-10-13--------------------------------------|
D|--------------------------------------------|



E|-13-8----------8-13-8----------8-13-8-------------|
B|------10----10--------10----10--------10----------|
G|---------10--------------10--------------10-------|
D|--------------------------------------------10----|
A|-----------------------------------------------12-|
D|--------------------------------------------------|


E|----------------8-13-8-13-8----------8-|
B|-------------10-------------10----10---|
G|----------10-------------------10------|
D|-------10------------------------------|
A|--8-12---------------------------------|
D|---------------------------------------|


E|-9-6-------6-12-9----------9-15-12----------12-|
B|-----8---8--------11----11---------14----14----|
G|-------9-------------12---------------15-------|
D|-----------------------------------------------|
A|-----------------------------------------------|
D|-----------------------------------------------|

E|-18-15----------15-21-18----------18-20-18----|
B|-------17----17----------20----20----------18-|
G|----------18----------------21----------------|
D|----------------------------------------------|
A|----------------------------------------------|
D|----------------------------------------------|

2nd guitar under solo
e|--------------------------------------------------------------------|
B|--------------------------------------------------------------------|
G|--------------------------------------------------------------------|
d|--------------------------------------------------------------------|
A|--00000---0000-0000-00000---00000---55555---5555-5555-55555---5555--|
D|--00000---0000-0000-00000---00000---55555---5555-5555-55555---5555--|

E|------------------------------------|
B|------------------------------------|
G|------------------------------------|
D|------------------------------------|
A|--33333---3333-3333-33333---33333---|
D|--33333---3333-3333-33333---33333---|

e|--------------------------------------|
B|--------------------------------------|
G|--------------------------------------|
d|--------------------------------------|
A|---22222---22222---55555---55555------|
D|---22222---22222---55555---55555------|

Chorus
(*Both Guitars* Strum whole chorus.)
e|------------------------------|  
B|------------------------------|                
G|------------------------------|
d|----3----2----0---3---3---0---|
A|----3----3----0---3---2---0---|
D|----3----2----0---3---3---0---|

1st guitar repeats intro
_______________________________________________________
|e|-----6p5-------6p5------5---5-------                | 
|B|---------3---------3----------------                |
|G|-----------3~--------3~---3---------  X2            | 
|d|------------------------------------                |
|A|------------------------------------                |
|D|------------------------------------                | 
|e|--13p12---------13p12---------12-----12------       |
|B|--------10------------10---------------------       |
|G|-----------10~-----------10~------10---------  X2   |
|d|---------------------------------------------       |
|A|---------------------------------------------       |
|D|---------------------------------------------       |
|______________________________________________________|

2nd guitar under 1st guitar/ intro
e|--------------------|
B|--------------------|
G|--------------------|
d|--------------------|
A|--0~~---0~~----8~---|
D|--0~~---0~~----8~---|

e|---------------------------------------|         
B|---------------------------------------|         
G|---------------------------------------|     X2  
d|---------------------------------------|         
A|--0000--0--0000--0-0000----------------|         
D|--0000--0--0000--0-0000----------------|     

E|----------|
B|----------|
G|----------|
D|----------|    
A|--8~~-----|
D|--8~~-----|

Outro
(2nd guitar X4)
e|------------------------------|  
B|------------------------------|
G|------------------------------| 
d|--8-----7-----8-----7-----7---|
A|----------5-----------5-------|
D|----0-0-----0---0-0-----0---8-|

1st guitar under 2nd guitar / Outro
e|----------------------------|                 
B|----------------------------|                
G|----------------------------|     X4                    
d|----------------------------|              
A|----------------------------|                 
D|--0000--0--0000--0-0000-----|                 

1st and 2nd guitar
e|----------------------------|                 
B|----------------------------|                 
G|----------------------------|     X3                    
d|----------------------------|                   
A|----------------------------|                 
D|--0000--0--0000--0-0000-----|                 

1st and 2nd guitar
e|----------------------|                 
B|----------------------|                
G|----------------------|                    
d|----------------------|              
A|-------------------0--|               
D|--0000--0-0000--0--0--|                 





Comments


Popular Oh Sleeper tabs & chords
World Without A Sun Bass Tabs
Means To Believe Chords
Building The Nations Tabs
Charlatan's Host Tabs
Reveries Of Flight 1 Tabs
The Conscience Speaks Tabs
The Finisher 3 Tabs
Vices Like Vipers 1 Tabs
Vices Like Vipers 2 Tabs
We Are The Archers 1 Tabs


Song lyrics



↑ Back to top | Tablatures and chords are parodies/interpretations of the original songs. You may use it for private study, scholarship, research or language learning purposes only
© 2014 AZChords.com Contact us | Privacy policy | DMCA | Add/correct tabs | Request tabs | Top 50 tabs