>
 >
The Finisher 1

The Finisher 1 Guitar Tabs

Oh Sleeper - The Finisher 1 chords, tabs, tablatures, lyrics

Guitar lessons | Add/correct | Request | Top 50 tabs Artists:  A B C D E F G H I J K L M N O P Q R S T U V W X Y Z 0-9

The Finisher 1 Guitar Tabs – Oh Sleeper

CD, Sheet music, Poster

Do you like The Finisher 1? Share with your friends now
Bass TabsTabsTabs v2Tabs v3
[The Finisher]
[Son Of The Morning]
[Oh Sleeper]

Tuning: Drop D

[Riff 1, Guitar 1 & 2] - [00:00] - [00:23]----------------| 2x
- --------------------------------------------------------|
- -11p10-----11p10-----10-10--11p10-----11p10-----10-10---|
- ------7---7-----7---7--7--7------7---7-----7---7--7--7--|
- -------8---------8----------------8---------8-----------|
- --------------------------------------------------------|
- --------------------------------------------------------|
-
- -------------------------------------------------------|
- -------------------------------------------------------|
- -------------------------------------------------------|
- -7~----------------------------------------------------|
- -5~----------------------------------------------------|
- -0~----------------------------------------------------|


- -13p12--------13p12--------12--12---13p12--------13p12--------12--12---|
- ------10----10-----10----10--10--10------10----10-----10----10--10--10-|
- --------10-----------10--------------------10-----------10-------------|
- -----------------------------------------------------------------------|
- -----------------------------------------------------------------------|
- -----------------------------------------------------------------------|
-
- -----------------------------------------------------------------------|
- -----------------------------------------------------------------------|
- -2~--------------------------------------------------------------------|
- -3~--------------------------------------------------------------------|
- -1~--------------------------------------------------------------------|
- -----------------------------------------------------------------------|

----------------------------------------------------------------------------

[Riff 2] - [00:23] - [00:33]----| 4x
- ------------------------------|
- ------------------------------|
- ------------------------------|
- -8-----7-----8-----7-----7----|
- ---------5-----------5--------|
- ---7-0-----0---7-0-----0---8--|
PM           .           .

----------------------------------------------------------------------------

[Riff 3, Guitar 1 & 2] - [00:33] - [00:44]
- ---------------------------------------------------------| 1
- ---------------------------------------------------------|
- ---------------------------------------------------------|
- -8-----7-----8-----7-----7---8-----7-----8-----7-----7---|
- ---------5-----------5---------------5-----------5-------|
- ---7-0-----0---7-0-----0---8---7-0-----0---7-0-----0---8-|
PM           .           .               .           .
-
- ---------------------------------------------------------|
- ---------------------------------------------------------|
- ---------------------------------------------------------|
- ---------------------------------------------------------|
- -000---0-----000---0-----000-0-----000---0-----000---0---|
- -000---0-----000---0-----000-0-----000---0-----000---0---|
PM .....................................................


- -------------------------------------------------------------| 2
- -------------------------------------------------------------|
- -------------------------------------------------------------|
- -8-----7-----8-----7-----7---8-----7-----8-----7-----7-------|
- ---------5-----------5---------------5-----------5-------0-0-|
- ---7-0-----0---7-0-----0---8---7-0-----0---7-0-----0---8-0-0-|
PM           .           .               .           .     ...
-
- -------------------------------------------------------------|
- -------------------------------------------------------------|
- -------------------------------------------------------------|
- -----------------------------------------------------0-------|
- -000---0-----000---0-----000-0-----000---0-----000---0-0-0-0-|
- -000---0-----000---0-----000-0-----000---0-----000---0-0-0-0-|
PM .................................................     .....

----------------------------------------------------------------------------

[Riff 4, Guitar 1, 2 & 3] - [00:44] - [01:08]----| 2x
- -----------------------------------------------|
- -----------------------------------------------|
- -14-------12-------10--------------------------|
- -x--------x--------x---------------------------|
- -12(16x)--10(16x)--8(32x)----------------------|
- -----------------------------------------------|
-
- -----------------------------|
- -----------------------------|
- -10-------9--------7---------|
- -x--------x--------x---------|
- -8(16x)---7(16x)---5(32x)----|
- -----------------------------|
-
- -----------------------------|
- -----------------------------|
- -----------------------------|
- -3--------2--------0---------|
- -3--------3--------0---------|
- -3(16x)---2(16x)---0(32x)----|

----------------------------------------------------------------------------

[Riff 5, Guitar 1 & 2] - [01:08] - [01:19]
- ---------------------------------------------------------| 1
- ---------------------------------------------------------|
- ---------------------------------------------------------|
- -8-----7-----8-----7-----7---8-----7-----8-----7-----7---|
- ---------5-----------5---------------5-----------5-------|
- ---7-0-----0---7-0-----0---8---7-0-----0---7-0-----0---8-|
PM           .           .               .           .
-
- ---------------------------------------------------------|
- ---------------------------------------------------------|
- ---------------------------------------------------------|
- ---------------------------------------------------------|
- -000---0-----000---0-----000-0-----000---0-----000---0---|
- -000---0-----000---0-----000-0-----000---0-----000---0---|
PM .....................................................


- ----------------------------------------------------------| 2
- ----------------------------------------------------------|
- ----------------------------------------------------------|
- -8-----7-----8-----7-----7---8-----7-----8-----7-----7----|
- ---------5-----------5---------------5-----------5--------|
- ---7-0-----0---7-0-----0---8---7-0-----0---7-0-----0---8--|
PM           .           .               .           .
-
- ----------------------------------------------------------|
- ----------------------------------------------------------|
- ----------------------------------------------------------|
- ----------------------------------------------------------|
- -000---0-----000---0-----000-0-----000---0-----000---0000-|
- -000---0-----000---0-----000-0-----000---0-----000---0000-|
PM ........................................................

----------------------------------------------------------------------------

[Riff 6] - [01:19] - [01:29]---------------------------------| 4x
- -----------------------------------------------------------|
- -----------------------------------------------------------|
- -----------------------------------------------------------|
- ------------------------------7h8p7------------------------|
- -------------------------8h10-------8h10h12-----0h8h10h12--|
- -0h8h10h12-0---0h8h10h12--------------------0--------------|

----------------------------------------------------------------------------

[Riff 7, Guitar 1 & 2] - [01:29] - [01:41]
- ------------------------------------------------------------------| 1
- ------------------------------------------------------------------|
- ------------------------------------------------------------------|
- -88888---8888888888888---88888888---------------------------------|
- -55555---5555555555555---5555555555555---5555555555555---55555555-|
- ---------------------------------55555---5555555555555---55555555-|
PM ................................................................
-
- ------------------------------------------------------------------|
- ------------------------------------------------------------------|
- -7~------------------------------9~-------------------------------|
- -x-------------------------------x--------------------------------|
- -5~------------------------------7~-------------------------------|
- ------------------------------------------------------------------|


- ------------------------------------------------------------------| 2
- ------------------------------------------------------------------|
- ------------------------------------------------------------------|
- ---------------------------------55555---5555555555555---55555555-|
- -33333---3333333333333---3333333344444---4444444444444---44444444-|
- -33333---3333333333333---33333333---------------------------------|
PM ................................................................
-
- ------------------------------------------------------------------|
- ------------------------------------------------------------------|
- -10~-----------------------------6~-------------------------------|
- -x-------------------------------x--------------------------------|
- -8~------------------------------4~-------------------------------|
- ------------------------------------------------------------------|

----------------------------------------------------------------------------

[Riff 7, Guitar 1] - [01:41] - [01:53]

[Riff 8] - [01:41] - [01:53]
- -10-5-------5-8-5-------5-6-5-----|
- ------6---6-------6---6-------6---|
- --------7-----------7-----------7-|
- ----------------------------------|
- ----------------------------------|
- ----------------------------------|

- ---------------5-6-5-8-5-------5-|
- -------------6-----------6---6---|
- -----------7---------------7-----|
- -7-------7-----------------------|
- ---8-5-8-------------------------|
- ---------------------------------|

- -15-10----------10-13-10----------10-11-10-------|
- -------11----11----------11----11----------11----|
- ----------12----------------12----------------12-|
- -------------------------------------------------|
- -------------------------------------------------|
- -------------------------------------------------|

- ----------------------10-11-10-13-10----------10-|
- -------------------11----------------11----11----|
- ----------------12----------------------12-------|
- -12----------12----------------------------------|
- ----13-10-13-------------------------------------|
- -------------------------------------------------|

- -13-8----------8-13-8----------8-13-8-------|
- ------10----10--------10----10--------10----|
- ---------10--------------10--------------10-|
- --------------------------------------------|
- --------------------------------------------|
- --------------------------------------------|

- ---------------------8-13-8-13-8----------8-|
- ------------------10-------------10----10---|
- ---------------10-------------------10------|
- -10---------10------------------------------|
- ----12-8-12---------------------------------|
- --------------------------------------------|

- -9-6-------6-12-9----------9-15-12-------|
- -----8---8--------11----11---------14----|
- -------9-------------12---------------15-|
- -----------------------------------------|
- -----------------------------------------|
- -----------------------------------------|

- ----12-18-15----------15-21-18----------18-21-18-|
- -14----------17----17----------20----20----------|
- ----------------18----------------21-------------|
- -------------------------------------------------|
- -------------------------------------------------|
- -------------------------------------------------|

----------------------------------------------------------------------------

[Riff 4, Guitar 1, 2 & 3] - [01:53] - [02:17]----| 2x
[Riff 1, Guitar 1 & 2] - [02:17] - [02:41]-------| 2x

----------------------------------------------------------------------------

[Riff 9, Guitar 1 & 2] - [02:41] - [02:51]
- ---------------------------------------------------------| 1
- ---------------------------------------------------------|
- ---------------------------------------------------------|
- -8-----7-----8-----7-----7---8-----7-----8-----7-----7---|
- ---------5-----------5---------------5-----------5-------|
- ---7-0-----0---7-0-----0---8---7-0-----0---7-0-----0---8-|
PM           .           .               .           .
-
- ---------------------------------------------------------|
- ---------------------------------------------------------|
- ---------------------------------------------------------|
- ---------------------------------------------------------|
- -000---0-----000---0-----000-0-----000---0-----000---0---|
- -000---0-----000---0-----000-0-----000---0-----000---0---|
PM .....................................................


- ---------------------------------------------------------| 2
- ---------------------------------------------------------|
- ---------------------------------------------------------|
- -8-----7-----8-----7-----7---8-----7-----8-----7-----7---|
- ---------5-----------5---------------5-----------5-------|
- ---7-0-----0---7-0-----0---8---7-0-----0---7-0-----0---8-|
PM           .           .               .           .
-
- ---------------------------------------------------------|
- ---------------------------------------------------------|
- ---------------------------------------------------------|
- ---------------------------------------------------------|
- -000---0-----000---0-----000-0-----000---0-----000---000-|
- -000---0-----000---0-----000-0-----000---0-----000---000-|
PM .......................................................

----------------------------------------------------------------------------

[Riff 10] - [02:51] - [03:50]
- ---------------------------------------------------------|
- ---------------------------------------------------------|
- ---------------------------------------------------------|
- ---------------------------------------------------------|
- -000---0-----000---0-----000-0-----000---0-----000---0---|
- -000---0-----000---0-----000-0-----000---0-----000---0---|
PM .....................................................

- ---------------------------------------------------------|
- ---------------------------------------------------------|
- ---------------------------------------------------------|
- -----------------------------------------------------0---|
- -000---0-----000---0-----000-0-----000---0-----000---0---|
- -000---0-----000---0-----000-0-----000---0-----000---0---|
PM .................................................

----------------------------------------------------------------------------

[Symbols]
h     Hammer On
p     Pull Off
PM... Palm Mute notes with (...) under them
x     Dead Note
( x)  Play note x amount of times





Comments


Popular Oh Sleeper tabs & chords
World Without A Sun 2 Bass Tabs
In The Wake Of Pigs Tabs
Means To Believe Tabs
Means To Believe Intro Tabs
Reveries Of Flight 1 Tabs
Son Of The Morning Tabs
The Finisher Tabs
The Fire Dawn Tabs
We Are The Archers 3 Tabs
We Are The Archurs Intro Tabs


Song lyrics



↑ Back to top | Tablatures and chords are parodies/interpretations of the original songs. You may use it for private study, scholarship, research or language learning purposes only
© 2014 AZChords.com Contact us | Privacy policy | DMCA | Add/correct tabs | Request tabs | Top 50 tabs