» » »

Reveries Of Flight Tabs (ver.1)

Artists:  A B C D E F G H I J K L M N O P Q R S T U V W X Y Z # 

Reveries Of Flight Tabs (ver.1)

Oh Sleeper
Rating:
0/5 (0 votes)

Hard to play? Try these video lessons and learn fast.
                my first official tab, super easy song.
numbers spaced out for reading's sake.
I hope the timing makes sense!

DADGBE

1:21-1:35
|-------------------------------------------------------------------------|
|-------------------------------------------------------------------------|
|-------------------------------------------------------------------------|
|-7-7-7-7-7-7-7-7-10-10-10-10-10-10-10-10-9-9-9-9-9-9-9-9-9-9-9-9-9-9-9-9-|
|-7-7-7-7-7-7-7-7-10-10-10-10-10-10-10-10-9-9-9-9-9-9-9-9-9-9-9-9-9-9-9-9-|
|-7-7-7-7-7-7-7-7-10-10-10-10-10-10-10-10-9-9-9-9-9-9-9-9-9-9-9-9-9-9-9-9-|
::1:e:+:a:2:e:+:a:3 :e :+ :a :4 :e :+ :a :1:e:+:a:2:e:+:a:3:e:+:a:4:e:+:a::

|-------------------------------------------------------------------------|
|-------------------------------------------------------------------------|
|-------------------------------------------------------------------------|
|-7-7-7-7-7-7-7-7-10-10-10-10-10-10-10-10-9-9-9-9-9-9-9-9-9-9-9-9-9-9-9-9-|
|-7-7-7-7-7-7-7-7-10-10-10-10-10-10-10-10-9-9-9-9-9-9-9-9-9-9-9-9-9-9-9-9-|
|-7-7-7-7-7-7-7-7-10-10-10-10-10-10-10-10-9-9-9-9-9-9-9-9-9-9-9-9-9-9-9-9-|
::1:e:+:a:2:e:+:a:3 :e :+ :a :4 :e :+ :a :1:e:+:a:2:e:+:a:3:e:+:a:4:e:+:a::

1:35-1:49
|-------------------------------------------------------------------------|
|-------------------------------------------------------------------------|
|-------------------------------------------------------------------------|
|-3-3-3-3-3-3-3-3-5-5-5-5-5-5-5-5-2-2-2-2-2-2-2-2-2-2-2-2-2-2-2-2---------|
|-3-3-3-3-3-3-3-3-5-5-5-5-5-5-5-5-2-2-2-2-2-2-2-2-2-2-2-2-2-2-2-2---------|
|-3-3-3-3-3-3-3-3-5-5-5-5-5-5-5-5-2-2-2-2-2-2-2-2-2-2-2-2-2-2-2-2---------|
::1:e:+:a:2:e:+:a:3:e:+:a:4:e:+:a:1:e:+:a:2:e:+:a:3:e:+:a:4:e:+:a:--------:

|-------------------------------------------------------------------------|
|-------------------------------------------------------------------------|
|-------------------------------------------------------------------------|
|-3-3-3-3-3-3-3-3-5-5-5-5-5-5-5-5-2-2-2-2-2-2-2-2-2-2-2-2-2-2-2-2---------|
|-3-3-3-3-3-3-3-3-5-5-5-5-5-5-5-5-2-2-2-2-2-2-2-2-2-2-2-2-2-2-2-2---------|
|-3-3-3-3-3-3-3-3-5-5-5-5-5-5-5-5-2-2-2-2-2-2-2-2-2-2-2-2-2-2-2-2---------|
::1:e:+:a:2:e:+:a:3:e:+:a:4:e:+:a:1:e:+:a:2:e:+:a:3:e:+:a:4:e:+:a:--------:

1:49-2:17
|-------------------------------------------------------------------------|
|-------------------------------------------------------------------------|
|-------------------------------------------------------------------------|
|-7-7-7-7-7-7-7-7-7-7-7-7-7-7-7-7-10-10-10-10-10-10-10-10-----------------|
|-7-7-7-7-7-7-7-7-7-7-7-7-7-7-7-7-10-10-10-10-10-10-10-10-continued.......|
|-7-7-7-7-7-7-7-7-7-7-7-7-7-7-7-7-10-10-10-10-10-10-10-10-----------------|
::1:e:+:a:2:e:+:a:3:e:+:a:4:e:+:a:1 :e :+ :a :2 :e :+ :a

|-------------------------------------------------------------------------|
|-------------------------------------------------------------------------|
|-------------------------------------------------------------------------|
|-10-10-10-10-10-10-10-10-3-3-3-3-3-3-3-3-3-3-3-3-3-3-3-3-----------------|
|-10-10-10-10-10-10-10-10-3-3-3-3-3-3-3-3-3-3-3-3-3-3-3-3------continue...|
|-10-10-10-10-10-10-10-10-3-3-3-3-3-3-3-3-3-3-3-3-3-3-3-3-----------------|
::3 :e :+ :a :4 :e :+ :a :1:e:+:a:2:e:+:a:3:e:+:a:4:e:+:a:

|-------------------------------------------------------------------------|
|-------------------------------------------------------------------------|
|-------------------------------------------------------------------------|
|-2-2-2-2-2-2-2-2-2-2-2-2-2-2-2-2-----------------------------------------|
|-2-2-2-2-2-2-2-2-2-2-2-2-2-2-2-2-----------------------------------------|
|-2-2-2-2-2-2-2-2-2-2-2-2-2-2-2-2-----------------------------------------|
::1:e:+:a:2:e:+:a:3:e:+:a:4:e:+:a:

|-------------------------------------------------------------------------|
|-------------------------------------------------------------------------|
|-------------------------------------------------------------------------|
|-7-7-7-7-7-7-7-7-7-7-7-7-7-7-7-7-10-10-10-10-10-10-10-10-----------------|
|-7-7-7-7-7-7-7-7-7-7-7-7-7-7-7-7-10-10-10-10-10-10-10-10-continued.......|
|-7-7-7-7-7-7-7-7-7-7-7-7-7-7-7-7-10-10-10-10-10-10-10-10-----------------|
::1:e:+:a:2:e:+:a:3:e:+:a:4:e:+:a:1 :e :+ :a :2 :e :+ :a

|-------------------------------------------------------------------------|
|-------------------------------------------------------------------------|
|-------------------------------------------------------------------------|
|-10-10-10-10-10-10-10-10-3-3-3-3-3-3-3-3-3-3-3-3-3-3-3-3-----------------|
|-10-10-10-10-10-10-10-10-3-3-3-3-3-3-3-3-3-3-3-3-3-3-3-3------continue...|
|-10-10-10-10-10-10-10-10-3-3-3-3-3-3-3-3-3-3-3-3-3-3-3-3-----------------|
::3 :e :+ :a :4 :e :+ :a :1:e:+:a:2:e:+:a:3:e:+:a:4:e:+:a:

|-------------------------------------------------------------------------|
|-------------------------------------------------------------------------|
|-------------------------------------------------------------------------|
|-2-2-2-2-2-2-2-2-2-2-2-2-2-2-2-2-----------------------------------------|
|-2-2-2-2-2-2-2-2-2-2-2-2-2-2-2-2-----------------------------------------|
|-2-2-2-2-2-2-2-2-2-2-2-2-2-2-2-2-----------------------------------------|
::1:e:+:a:2:e:+:a:3:e:+:a:4:e:+:a:


2:18-2:31
PLAY FOUR TIMES
|---------------------------------|
|---------------------------------|
|---------------------------------|
|-7-----7-7-5-8---7-----7-7-5-8---|
|-7-----7-7-5-8---7-----7-7-5-8---|
|-7-----7-7-5-8---7-----7-7-5-8---|
::1:e:+:a:2:e:+:a:3:e:+:a:4:e:+:a::
            
Hard to play? Try these video lessons and learn fast. | Correct




comments powered by Disqus
↑ Back to top | Tablatures and chords are parodies/interpretations of the original songs. You may use it for private study, scholarship, research or language learning purposes only