» » »

Oh Sleeper, Reveries Of Flight Tabs (ver.2)

Artists:  A B C D E F G H I J K L M N O P Q R S T U V W X Y Z # 

Reveries Of Flight Tabs (ver.2)

Oh Sleeper Tabs
 Rating:
4.4/5 (7 votes)
Reveries Of Flight lessons Tabs too difficult? Try these video lessons and learn fast
                (A sound ahead... brothers sing)

-7-7-7-10-10-10-10-10-9-9-9-9-9-9-9-9----------------------------------------|
-----------------------------------------------------------------------------|
-----------------------------------------------------------------------------|
-----------------------------------------------------------------------------|
-----------------------------------------------------------------------------|
-----------------------------------------------------------------------------|(4x)
(It's just out of reach ...the heaven denied me)
-3-3-3-5-5-5-5-5-2-2-2-2-2-2-2-2---------------------------------------------|
-----------------------------------------------------------------------------|
-----------------------------------------------------------------------------|
-----------------------------------------------------------------------------|
-----------------------------------------------------------------------------|
-----------------------------------------------------------------------------|(2x)

(It's like your deaf... be close to you)
-7-7-7-7-10-10-10-10-3-3-3-3-2-2-2-2-----------------------------------------|
-----------------------------------------------------------------------------|
-----------------------------------------------------------------------------|
-----------------------------------------------------------------------------|
-----------------------------------------------------------------------------|
-----------------------------------------------------------------------------|
-----------------------------------------------------------------------------|(4x)

(part before agressiveness)"You keep denying my lead!
-7-7-7-10-10-10-10-10-9-9-9-9-9-9-9-9----------------------------------------|
-----------------------------------------------------------------------------|
-----------------------------------------------------------------------------|
-----------------------------------------------------------------------------|
-----------------------------------------------------------------------------|
-----------------------------------------------------------------------------|(2x)

Bar chords low E:
B minor (4x) D minor (4x)C# minor(8x)
Because I've tried, I've never pulled back my reach,
B minor (4x) D minor (4x)C# minor(8x)
And I've stayed and I've died, but you keep looking for me
E minor(4x) A minor(4x) F# minor(8x)
Where I'm not.I wont be just where you want me to be.
E minor(4x) A minor(4x) F# minor(8x)
You've got to believe and just trust that I can be everything"
B minor(4x)D minor(4x)E minor(4x) F#minor(8x)
It's like your deaf to my voice
"but I'm not!"
But I've been here for every moment
"and I've fought"
B minor(4x)D minor(4x)E minor(4x) F#minor(8x)
Waiting on your call to move
"just call to move"
B minor(4x)D minor(4x)E minor(4x) F#minor(8x)
If you could just make a choice
"oh I have"
I know you would find me wanting
"I just want..."
B minor(4x)D minor(4x)E minor(4x) F#minor(8x)
Only to be close to you
"all of you."
B minor(3x)C minor (1x)
If you would just try and let (me) pry all your grips on worries,
I would come alive in your life and let you find the flight you're longing.


THE TIMING MIGHT BE OFF JUST DO THE BEST YOU CAN! ENJOYYY!!!
            
Submit corrections

comments powered by Disqus
↑ Back to top | Oh Sleeper Tabs for Reveries Of Flight. Lyrics for acoustic guitar and electric guitar. Tablatures and chords are parodies/interpretations of the original songs. You may use it for private study, scholarship, research or language learning purposes only