» » »

We Are Born The Mutants Again With Leafling Tabs (ver.1)

Artists:  A B C D E F G H I J K L M N O P Q R S T U V W X Y Z # 

We Are Born The Mutants Again With Leafling Tabs (ver.1)

Of Montreal
Rating:
0/5 (0 votes)

Hard to play? Try these video lessons and learn fast.
                There's already a very accurate bass tab out there.  The guitar tab that seems to keep 
up is a simplified version of the chords - I figured I would give my attempt at fleshing 
guitar part out.

The bass line starts the song until about 44 seconds, then the guitar comes in - this 
is repeated until the verse:

E-----------------------------------------------|
B-----------------------------------------------|
G-5---7p5-55-7---5---7p5-------5---7p5----------|
D--7-7---7--7-----7-7---7--7-5--7-7---7-5-7-----|
A---8--------------8-----88------8--------------|
E-----------------------------------------------|


The verses go something like

E-1--0-----1-----1-----1-----3-----3-3|
B-3----3---1-----1-----3-----3-----3-3|
G-2--------2-0-2-2-2-0-3-----3-----3-3|
D-0--------3-----3-----3-3-5-5-3-5-5-5|
A----------3-----3-----1-----5-----5-5|
E----------1-----1-----------3-----3-3|
            
Hard to play? Try these video lessons and learn fast. | Correct




comments powered by Disqus
↑ Back to top | Tablatures and chords are parodies/interpretations of the original songs. You may use it for private study, scholarship, research or language learning purposes only