>
 >
St. Exquisite's Confessions

St. Exquisite's Confessions Guitar Tabs

Of Montreal - St. Exquisite's Confessions chords, tabs, tablatures, lyrics

Guitar lessons | Add/correct | Request | Top 50 tabs Artists:  A B C D E F G H I J K L M N O P Q R S T U V W X Y Z 0-9

St. Exquisite's Confessions Guitar Tabs – Of Montreal

CD, Sheet music, Poster

Do you like St. Exquisite's Confessions? Share with your friends now
Tabs
Bbm7        Fm7
Bbm7        Fm7   Em7
Ebm7        Ab
Ebm7        Ab    A


Bbm7                       Fm7
I'm so sick of sucking the dick of this cruel, cruel city
Bbm7                            Fm7
I've forgotten what it takes to please a woman
    Em7    Ebm7                                  Ab
But that's all going to change (Oh, all going to change)
                   Ebm7                                  Ab      A
Yeah, yeah, that's all going to change (Oh, all going to change)

Bbm7                           Fm7
Now the freaks want to take me home to see
                                          Bbm7
If the rumors are true (If the rumors are true!)
                             Fm7
So I kick open the doors and windows
To let the world hear
Em7           Ebm7
Sure, there's so much anger and pain
Bbm7                                        Ebm7
But come and see, there's still some gentle people
                       Gdim
Fucking to "Strawberry Letter 23"

 Gb                Abm6
(Bitch) Now, we're both laughing
 Gb                 Db
(Bitch) Yeah, we're both laughing
 Gb                 Abm6
(Bitch) Yeah, we're both laughing
 Gb                 Db
(Bitch) Yeah, we're both laughing

Abm                               Gb
Maybe I blow you whatever kind of kisses you want
               D
Because you've got so much in common
        Ebm
With my peacock creator

Bbm7               Fm7
We function on the lowest human level
Bbm7                   Fm7    Em7
But still somehow keep living
  Ebm7
I thought it was over
                           Ab
But it all still hurts the same (All hurts the same)
         Ebm7                          Ab
It still hurts the same (All hurts the same)

Bbm
I only photograph my fascinations
Until the stress of the flash, makes them fade
The danger is real, but I'm mute to the feeling
We started by giving each other interesting sobriquets

Seduce the dream back to the surface
Never find my empty elephant of some beautiful death
It's time to get to know the article that you'll be stripping
Ladies of the spread
You better keep my secrets
In that perfume poodle head
Now it's so . . . come on . . . come on
To the replacement Dong Fang she retrieved

The lion leaked out of his pendant, and then
   Ebm                                   Bbm
We talked about "Valerie and Her Week of Wonders"

Fm         Bbm
Oh oh oh oh


E - V - I - L
She loves to eat beautiful things

Am
Am
Dm      Em

Am
Am
Dm      Em

Am
Feeling voices again, not good
                                      Dm
Look, the sky is pregnant with maggots
                         Em
Cause something happened in the parking lot

Am                    G
I'm searching for the context
               F
Not finding it
                       C
Don't make it real for me
                Bb             Am
Some things are better left victims

Intro:(0:00)

Guitar 1
   Bbm7            Fm7                  Bbm7            Fm7         Em7
e|-9---------------8------------------|-9----------------8-----------7----|
b|-9---------------9------------------|-9----------------9-----------8----|
g|-10--------------8------------------|-10---------------8-----------7----|
d|-8---------------10-----------------|-8----------------10----------9----|
a|------------------------------------|-----------------------------------|
e|------------------------------------|-----------------------------------|
Guitar 2
e|-96------------6-86-----------------|/96------------6-/8-118---13-------|
b|---9-6-----969-----9----------------|---9-6-----969--------------1312---|
g|---------------------8-----8-6h8p6--|-----------------------------------|
d|----------------------------------8-|-----------------------------------|
a|------------------------------------|-----------------------------------|
e|------------------------------------|-----------------------------------|

Guitar 1
   Ebm7             Ab                Ebm7             Ab        A      Bbm7
e|-6----------------4---------------|-6----------------4---------5-----|-9-|
b|-7----------------4---------------|-7----------------4---------5-----|-9-|
g|-6----------------5---------------|-6----------------5---------6-----|-10|
d|-8----------------6---------------|-8----------------6---------7-----|-8-|
a|----------------------------------|----------------------------------|---|
e|----------------------------------|----------------------------------|---|
Guitar 2
e|---9-------------/13119-11--------|----------------------------------|---|
b|-11-119-9/11--9-------------------|----------------------------------|---|
g|----------------------------------|-----------------/108-6-8---------|---|
d|----------------------------------|------6-4-----------------6---7---|-8-|
a|----------------------------------|---4h6----8-4-6-------------------|---|
e|----------------------------------|/6--------------------------------|---|


Verse 1:(0:24)
Guitar 1 same as intro (starting from the last Bbm7)

Verse 2:(0:48)
Guitar 1
   Bbm7            Fm7                  Bbm7            Fm7         Em7
e|-9-------------------------8----------|-9---------------8-----------7----|
b|-9-------------------------9----------|-9---------------9-----------8----|
g|-10------------------------8----------|-10--------------8-----------7----|
d|-8-------------------------10---------|-8---------------10----------9----|
a|--------------------------------------|----------------------------------|
e|--------------------------------------|----------------------------------|
Guitar 2
e|-9---9-9---9-9---9-9-9--9--8-(same----|-9---------------8-----------7----|
b|-9---9-9---9-9---9-9-9--9--9--rhythm)-|-9---------------9-----------8----|
g|-10--1010--1010--101010-10-8----------|-10--------------8-----------7----|
d|--------------------------------------|----------------------------------|
a|--------------------------------------|----------------------------------|
e|--------------------------------------|----------------------------------|

Guitar 1
   Ebm7             Bbm               Ebm7             Gdim
e|-6----------------6---------------|-6----------------6---------------|
b|-7----------------6---------------|-7----------------8---------------|
g|-6----------------6---------------|-6----------------6---------------|
d|-8----------------8---------------|-8----------------8---------------|
a|----------------------------------|----------------------------------|
e|----------------------------------|----------------------------------|
Guitar 2
e|-6----------------6---------------|-6----------------6---------------|
b|-7----------------6---------------|-7----------------8---------------|
g|-6----------------6---------------|-6----------------6---------------|
d|----------------------------------|----------------------------------|
a|----------------------------------|----------------------------------|
e|----------------------------------|----------------------------------|

(1:12)
Guitar 1
   Gb              Abm6             Gb               Db
e|-2---------------1---------------|2----------------1---------------|
b|-2---------------0---------------|2----------------2---------------|
g|-3---------------1---------------|3----------------1---------------|
d|---------------------------------|---------------------------------|
a|---------------------------------|---------------------------------|
e|---------------------------------|---------------------------------|
Guitar 2
e|---------------------------------|-------------------------6-------|
b|---------------------0-0-0/6-0/6-|-----------------6---9-6---9-7/9-|
g|-3-------------------------------|3------------6---------------8/10|
d|---------------------------------|----------6h8--8-----------------|
a|---------------------------------|---------------------------------|
e|---------------------------------|---------------------------------|

Guitar 1
   Gb              Abm6             Gb               Db
e|-2---------------1-(whammy)------|2----------------1---------------|
b|-2---------------0---------------|2----------------2---------------|
g|-3---------------1---------------|3----------------1---------------|
d|---------------------------------|---------------------------------|
a|---------------------------------|---------------------------------|
e|---------------------------------|---------------------------------|
Guitar 2
e|---------------------------------|-------------------------6-------|
b|-------------------------4/6-4/6-|-----------------6---9-6---9-7/9-|
g|---------------------------------|3------------6---------------8/10|
d|-8-------------------------------|----------6h8--8-----------------|
a|---------------------------------|---------------------------------|
e|---------------------------------|---------------------------------|

Guitar 1
   Abm             Gb                D               Ebm
e|-4---------------2---2-----2-----|/2-2-2---2-2-----2-2-2-----2-2---|
b|-4---------------2---------------|/3---------------4---------------|
g|-4---------------3-----3-----3---|/2-----2-----2---3-----3-3-------|
d|---------------------------------|---------------------------------|
a|---------------------------------|---------------------------------|
e|---------------------------------|---------------------------------|
Guitar 2
e|---------------------------------|---------------------------------|
b|-----9--/6/6---------------------|-----------------------2---------|
g|-------------6-3-----------------|-------------------1-3---3-------|
d|-9-------------------------------|---------------------------------|
a|---------------------------------|---------------------------------|
e|---------------------------------|---------------------------------|

(1:48)
Verse 3
Guitar 1
   Bbm7          Fm7                     Bbm7             Fm7         Em7
e|-9-------------8---------------------|-9----------------8-----------7----|
b|-9-------------9---------------------|-9----------------9-----------8----|
g|-10------------8---------------------|-10---------------8-----------7----|
d|-8-------------10--------------------|-8----------------10----------9----|
a|-------------------------------------|-----------------------------------|
e|-------------------------------------|-----------------------------------|
Guitar 2
e|-------------------------------------|-9-----9----------8-----8-118-7----|
b|-------------------------------------|-9---------9------9-----9-9-9-8----|
g|-----------------------8h10p8h10p8---|-10----------10-----------8---7----|
d|------------------8h10p8(hold)-----8-|-----------------------------------|
a|-------------------------------------|-----------------------------------|
e|-------------------------------------|-----------------------------------|
Keyboard
e|-9-----------------------------------|-9-----------11--------------------|
b|-9-------------9---------------------|-9----------------9-----------8----|
g|-10------------8---------------------|-10---------------8-----------7----|
d|---------------10--------------------|------------------10----------9----|
a|-------------------------------------|-----------------------------------|
e|-------------------------------------|-----------------------------------|

Guitar 1
   Ebm7             Ab                Ebm7             Ab        A
e|-6----------------4---------------|-6----------------4---------5-----|
b|-7----------------4---------------|-7----------------4---------5-----|
g|-6----------------5---------------|-6----------------5---------6-----|
d|-8----------------6---------------|-8----------------6---------7-----|
a|----------------------------------|----------------------------------|
e|----------------------------------|----------------------------------|
Guitar 2
e|-6----------------------4---------|---9--------------4---------5-----|
b|-7--------------------------4-----|---9-11-----------4---------5-----|
g|-6------------6---5-----------5---|-----11-----------5---------6-----|
d|----------6h8---6-----------------|----------------------------------|
a|----------------------------------|----------------------------------|
e|----------------------------------|----------------------------------|
Keyboard
e|----------------------------------|----------------------------------|
b|-7----------------4---------------|-7----------------4---------------|
g|-6----------------5---------------|-6----------------5---------------|
d|-8----------------6---------------|-8----------------6---------------|
a|----------------------------------|----------------------------------|
e|----------------------------------|----------------------------------|


Part 2:(2:12)
There are lots of different sounds in this section that are very difficult
to distinguish. There are a few patterns that repeat over the Bbm, then
change for the Ebm and Fm.

Keyboard 1
  Bbm pattern       Ebm pattern      Fm pattern
e|--------------| |--------------| |----------------|
b|--------------| |--------------| |----------------|
g|--------------| |--7h8-7h8-6---| |---9h109h10-8---|
d|--7h8-7h8-6---| |-8------------| |-10-------------|
a|-8------------| |--------------| |----------------|
e|--------------| |--------------| |----------------|

Guitar
The guitar seems to alternate rather randomly between a few groups of notes
that I've tabbed out here.
   Bbm          Ebm           Fm
e|----------| |-6-6-4-6---| |-8-8-8-8---|
b|-6-7-6----| |-6-7-6-----| |-6-7-9-----|
g|-6-6-5-5--| |-------8---| |-------8---|
d|-------7--| |-----------| |-----------|
a|----------| |-----------| |-----------|
e|----------| |-----------| |-----------|


Bbm pattern for a long time
Ebm pattern twice
Bbm pattern twice
Fm pattern twice
Bbm pattern a few more times.


Part 3:(3:50)
As far as I can tell, the strings part consists of some violins fading in
and out and overlapping each other. It's a bit difficult to make it sound
like the record.

Strings
   Am           Am           Dm            Em
e|------5-----4-------5----4-5---------------3-------|
b|-5----6-------5-----6------6---------------5-------|
g|-5----5-------5-----5------7---------------4-------|
d|-7------------7------------------------------------|
a|---------------------------------------------------|
e|---------------------------------------------------|
Repeat this for the whole section.


Outro:(4:24)

Guitar 1
   Am          G           F           C           Bb       Am
e|-5-----------10----------13-------10-12-------13-10-------8--|
b|-5-----------12----------13-------12-13-------13-11-------10-|
g|-5-----------12----------14-------12-12-------14-10-------9--|
d|-------------------------------------------------------------|
a|-------------------------------------------------------------|
e|-------------------------------------------------------------|
Guitar 2
e|-------------------------------------------------------------|
b|-------------------------------------------------------------|
g|-------------------------------------5-----------3--------2--|
d|-7--------6--5--------4--3--------------------0--------------|
a|----------------------------------3--------------------------|
e|-------------------------------------------------------------|





Comments


Popular Of Montreal tabs & chords
A Dreamy Day Of Daydreaming Of You Chords
Good Morning Mr. Edminton Chords
Gronlandic Edit Chords
Obsidian Currents Chords
Youve Got A Gift Chords
An Eluardian Instance 1 Tabs
Death Is Not A Parallel Move Tabs
Dustin Hoffman Does Not Resist Temptation To Eat The Bathtub Ukulele
Montreal Ukulele
Your Magic Is Working Ukulele


Song lyrics



↑ Back to top | Tablatures and chords are parodies/interpretations of the original songs. You may use it for private study, scholarship, research or language learning purposes only
© 2014 AZChords.com Contact us | Privacy policy | DMCA | Add/correct tabs | Request tabs | Top 50 tabs