>
 >
Nonpareil Of Favor

Nonpareil Of Favor Guitar Tabs

Of Montreal - Nonpareil Of Favor chords, tabs, tablatures, lyrics

Guitar lessons | Add/correct | Request | Top 50 tabs Artists:  A B C D E F G H I J K L M N O P Q R S T U V W X Y Z 0-9

Nonpareil Of Favor Guitar Tabs – Of Montreal

CD, Sheet music, Poster

Do you like Nonpareil Of Favor? Share with your friends now
ChordsTabsUkulele
Nonpareil of Favor


D            A
Bbaug  A     Bm
Em           Em7


   D                A
My lover, I've been donating
        Bbaug    A
Time to review
        Bm
All the misinterpretations 
       Em          Em7
That define me and you

D            A
Bbaug  A/C#  Bm
G            Em

                   
I'm thinking about you 
In my secret language
Because I know you're the only one 
Who can help me take it easy

Now I'm happy in the head 
Knowing there ain't no sucker in the world 
That's a threat to us 
But we've become material

It's like, hey, you were always there 
Just on the tip of my tongue
And I needed you to happen, yeah

And now that you've happened
And it really, really, really came true
I feel like I ought to thank somebody
So I thought I'd thank you
Thank you
Thank you
Thank you
Thank you
Thank you

Dm

       G
So I'm calling your ass up 
        F
At like three in the morning 
         Eb
Saying, "Wake up, young dragon 
                        D
Let's go get compromised"
You'll be my little ally
    C
And you can have it which way you choose

        G
Now I'm so bombed out by your paradigm kisses
         G
How I've hacked at our southern hemispherical 
                     F
Eleven gods now, I'm cracking my sweet love
    C
I'm cracking my sweet love
    G
I'm cracking my sweet love
    Bm                        Bb
I'm cracking my sweet love

A (with variations)




(0:00)
Keyboard
   D               A6        A         F#aug          A             Bm
e|-5---5---5---5---9----9----9----9----10-----10------12-----12-----10-12121410----17-|
b|---7---7---7---7---10---10---10---10----1111---1111----1414---141412-------12-------|
g|-7---7-------------11---11-9----9----11-----11------14-----14--------------11--16---|
d|------------------------------------------------------------------------------------|
a|------------------------------------------------------------------------------------|
e|------------------------------------------------------------------------------------|

    Em                      Em7
e|-----------------------------------14----12----12-|
b|-----12----12----12----12-15-12-15----------15----|
g|--12-12-12-12-12-12-12-12----12----12----12----12-|
d|--14----14----14----14----14----14----14----14----|
a|--------------------------------------------------|
e|--------------------------------------------------|


(0:18)
Keyboard 2(need to tune guitar to drop d)
   D       A          Bbaug   A/C#    Bm         G          Em7
e|----------------------------------------------------------------|
b|---------2------2---3---3---5---5---3---------------3---3----3--|
g|-2-----2------2---2--------------------4--4--4-4------4---0-----|
d|----------------------------------------------------------------|
a|---------0------0---1---1---4---4---2--2------------2---2----2--|
D|-0-----0----------------------------------4--4-5------5---2-----|
Keyboard 3
(This may be played on one of the above instruments, but it only comes in after keyboard 2 enters.)
e|------------------------------------15-14-----------------------|
b|----------------------------------------------------------------|
g|----------------------------------------------------------------|
d|----------------------------------------------------------------|
a|----------------------------------------------------------------|
e|----------------------------------------------------------------|

(1:10)
Bass
   Dm
g|-------------------10---------------------------------10-1012---|
d|-121212121212121212--10------10-1212121212121212121010----------|
a|-----------------------12--12-----------------------------------|
e|----------------------------------------------------------------|

(1:16)
Guitar
   G           F         Eb                D         C
e|-----------3------------------------------------------------|
b|-------3-5-----------6---------4---4-----------3---------1--|
g|-----------------5-7-------3-5-------3-----2-4-------0-2----|
d|-----5---------7---------5-------------5-4---------2--------|
a|------------------------------------------------------------|
e|------------------------------------------------------------|
   C
e|----8-8-8-8-8-8-8-8-8--|
b|------8-8-8-8-8-8-8-8--|
g|-----------------------|
d|-----------------------|
a|-----------------------|
e|-----------------------|

(1:32)
Guitar(overdrive)
    G                 G           F
e|--7----------------77----------55---(hold)---|
b|--8----------------88----------66------------|
g|--7----------------77----------55------------|
d|---------------------------------------------|
a|---------------------------------------------|
e|---------------------------------------------|

   C                               G
e|-3-3-3-3-3-3-3-3-3-3-3-3-3-3-3-3-3-3-3-3-3-3-3-3-3-3-3-3-3-3-3-3-|
b|-5-5-5-5-5-5-5-5-5-5-5-5-5-5-5-5-3-3-3-3-3-3-3-3-3-3-3-3-3-3-3-3-|
g|-5-5-5-5-5-5-5-5-5-5-5-5-5-5-5-5-4-4-4-4-4-4-4-4-4-4-4-4-4-4-4-4-|
d|-----------------------------------------------------------------|
a|-----------------------------------------------------------------|
e|-----------------------------------------------------------------|

   Bm                              Bb        A
e|-2-2-2-2-2-2-2-2-2-2-2-2-2-2-2-2-1-1-1-1-|-0----------------------|
b|-3-3-3-3-3-3-3-3-3-3-3-3-3-3-3-3-3-3-3-3-|-2----------------------|
g|-4-4-4-4-4-4-4-4-4-4-4-4-4-4-4-4-3-3-3-3-|-2----------------------|
d|-----------------------------------------|------------------------|
a|-----------------------------------------|------------------------|
e|-----------------------------------------|------------------------|
Guitar(a few different guitars)
e|-----------------------------------------|-5-------9-----5h7p5----|
b|-----------------------------------------|------------------------|
g|-----------------------------------------|-6-------9--------------|
d|-----------------------------------------|---------------------7\-|
a|-----------------------------------------|------------------------|
e|-----------------------------------------|------------------------|


(2:05)

   A
e|---------------------------------|
b|-5-5-5-5-5-5-5-5-5-5-5-5-5-5-5-5-|
g|-6-6-6-6-6-6-6-6-6-6-6-6-6-6-6-6-|
d|-7-7-7-7-7-7-7-7-7-7-7-7-7-7-7-7-|
a|-7-7-7-7-7-7-7-7-7-7-7-7-7-7-7-7-|
e|-5-5-5-5-5-5-5-5-5-5-5-5-5-5-5-5-|

Repeat lots until:

(2:16)
Guitar 1
e|-b11--10-10-10-8-b11--10-10-10-8-b11--10-10-10-8-|
b|-------------------------------------------------|
g|-------------------------------------------------|
d|-------------------------------------------------|
a|-------------------------------------------------|
e|-------------------------------------------------|
Guitar 2
e|------7--7--5---------7--7--5---------7--7--5----|
b|--8-5----------7--8-5----------7--8-5----------7-|
g|-------------------------------------------------|
d|-------------------------------------------------|
a|-------------------------------------------------|
e|-------------------------------------------------|
Guitar 3
e|-------------------------------------------------|
b|-------------------------------------------------|
g|-------------------------------------------------|
d|--9---9-----9-----9---9-----9-----9---9-----9----|
a|--9---9-----9-----9---9-----9-----9---9-----9----|
e|-------------------------------------------------|

x3


(2:30)
Back to the A chord



(2:50)

Guitar 1(quite soft)
e|---5-7-5---5-7-5---5-7-5---5-7-5---5-7-5---5-7-5---5-7-5---5-7-5---5-7-5-|
b|-------------------------------------------------------------------------|
g|-------------------------------------------------------------------------|
d|-------------------------------------------------------------------------|
a|-------------------------------------------------------------------------|
e|-------------------------------------------------------------------------|
Guitar 2(a little louder)
e|-------------------------------------------------------------------------|
b|---7-5-7---7-5-7---7-5-7---7-5-7---7-5-7---7-5-7---7-5-7---7-5-7---7-5-7-|
g|-------------------------------------------------------------------------|
d|-------------------------------------------------------------------------|
a|-------------------------------------------------------------------------|
e|-------------------------------------------------------------------------|
Guitar 3(loudest)
e|-------------------------------------------------------------------------|
b|-------------------------------------------------------------------------|
g|-8-8-8-8-8-8-8-8-8-8-8-8-8-8-8-8-8-8-8-8-8-8-8-8-8-8-8-8-8-8-8-8-8-8-8-8-|
d|-------------------------------------------------------------------------|
a|-6-6-6-6-6-6-6-6-6-6-6-6-6-6-6-6-6-6-6-6-6-6-6-6-6-6-6-6-6-6-6-6-6-6-6-6-|
e|-------------------------------------------------------------------------|


Guitar 1
e|----7--9--10----7--9--10----7--9--10----7--9--10-|
b|-------------------------------------------------|
g|-------------------------------------------------|
d|-------------------------------------------------|
a|-------------------------------------------------|
e|-------------------------------------------------|
Guitar 2
e|-------------------------------------------------|
b|-7--9--7--9--7--9--7--9--7--9--7--9--7--9--7--9--|
g|-------------------------------------------------|
d|-------------------------------------------------|
a|-------------------------------------------------|
e|-------------------------------------------------|
Guitar 3
e|-------------------------------------------------|
b|-------------------------------------------------|
g|/13-13-13-13-13-13-13-13-13-13-13-13-13-13-13-13-|
d|-------------------------------------------------|
a|/11-11-11-11-11-11-11-11-11-11-11-11-11-11-11-11-|
e|-------------------------------------------------|


Guitar 1
e|---9-7-5---9-7-5----9--7--5-----5--7--9-----5--7--9-----5--7--9----9-11-9-|
b|--------------------------------------------------------------------------|
g|--------------------------------------------------------------------------|
d|--------------------------------------------------------------------------|
a|--------------------------------------------------------------------------|
e|--------------------------------------------------------------------------|
Guitar 2
e|--------------------------------------------------------------------------|
b|-5-7-5---5-7-5---5--7--5-----5--7--5-----5--7--5-----5--7--5--------------|
g|--------------------------------------------------------------------------|
d|-------7-------7----------7-----------7-----------7-----------7-----------|
a|--------------------------------------------------------------------------|
e|--------------------------------------------------------------------------|
Guitar 3
e|--------------------------------------------------------------------------|
b|--------------------------------------------------------------------------|
g|-9-9-9-9-9-9-9-9-10-10-10-10-10-10-10-10-10-10-10-10-10-10-12-12-9-9-9--9-|
d|--------------------------------------------------------------------------|
a|-7-7-7-7-7-7-7-7-8--8--8--8--8--8--8--8--8--8--8--8--8--8--10-10-7-7-7--7-|
e|--------------------------------------------------------------------------|


(3:12)
There are a few guitars playing lots of different notes, which are hard to distinguish.
This is probably the best way to play the chord on one guitar.

   A*
e|-0--0--0--0--0--0--0--0----|
b|-9--9--9--9--9--9--9--9----|
g|-11-11-11-11-11-11-11-11---|
d|-11-11-11-11-11-11-11-11---|
a|-0--0--0--0--0--0--0--0----|
e|---------------------------|



Guitar
   A
e|-5-5-5-5-5-5-5-5-5-5-5-5-5-5-5-5--------------------------------|
b|-5-5-5-5-5-5-5-5-5-5-5-5-5-5-5-5--------------------------------|
g|-6-6-6-6-6-6-6-6-6-6-6-6-6-6-6-6--------------------------------|
d|----------------------------------------------------------------|
a|----------------------------------------------------------------|
e|----------------------------------------------------------------|

And at around 3:32 this pattern appears in the vocals

Vocals
e|-9-7-----9-7------9-7-----9-7------|
b|-----7-10----7-10-----7-10----7-10-|
g|-----------------------------------|
d|-----------------------------------|
a|-----------------------------------|
e|-----------------------------------|

(3:45)
VOcals 1
e|-9--------------10-5---------------9--------------10-5----------------|
b|-10-------------12-7---------------10-------------12-7----------------|
g|-9--------------11-6---------------9--------------11-6----------------|
d|----------------------------------------------------------------------|
a|----------------------------------------------------------------------|
e|----------------------------------------------------------------------|
Vocals 2
e|-9-7-----9-7-------9-7-----9-7-----9-7-----9-7-------9-7-----9-7------|
b|-----7-10----7-10------7-10----7-10----7-10----7-10------7-10----7-10-|
g|----------------------------------------------------------------------|
d|----------------------------------------------------------------------|
a|----------------------------------------------------------------------|
e|----------------------------------------------------------------------|

Vocals 1
e|-4--------------7------------------|
b|-5--------------7-7----------------|
g|-4--------------7-6----------------|
d|------------------7----------------|
a|-----------------------------------|
e|-----------------------------------|
Vocals 2
e|-9-7-----9-7------9-7-----9-7------|
b|-----7-10----7-10-----7-10----7-10-|
g|-----------------------------------|
d|-----------------------------------|
a|-----------------------------------|
e|-----------------------------------|

(5:16)
Xylophone
   A
e|-79--7------------79--7------------79--7----7-------|
b|------10--9---7-9------10--9---7-9------10---9------|
g|-----------9----------------9-----------------------|
d|----------------------------------------------------|
a|----------------------------------------------------|
e|----------------------------------------------------|

Repeat once.

End just holding the A on the guitar.





Comments


Popular Of Montreal tabs & chords
Sleeping In The Beetle Bug 2 Bass Tabs
Autobiographical Grandfather Chords
My Darling Ive Forgotten Chords
Raindrop In My Skull Chords
Rose Robert Chords
Sirens Of Your Toxic Spirit 1 Chords
Triumph Of Disintegration Chords
City Bird Tabs
No Conclusion Tabs
Dirty Dustin Hoffman Needs A Bath Ukulele


Song lyrics



↑ Back to top | Tablatures and chords are parodies/interpretations of the original songs. You may use it for private study, scholarship, research or language learning purposes only
© 2014 AZChords.com Contact us | Privacy policy | DMCA | Add/correct tabs | Request tabs | Top 50 tabs