» » »

Of Montreal, My British Tour Diary Bass tabs (ver.1)

Artists:  A B C D E F G H I J K L M N O P Q R S T U V W X Y Z # 

My British Tour Diary Bass tabs (ver.1)

Of Montreal Tabs
Rating:
5/5 (1 vote)
My British Tour Diary lessons Tabs too difficult? Try these video lessons and learn fast
                Artist/Band: of Montreal
Label: Polyvinyl Records

Tuning: (Standard) E A D G
   
Key: ~~ - Let Ring
     /  - Slide to Fret
     h  - Hammer on
     p  - Pull off

G|----------------------------------|
D|--------------4---------------4-6-|
A|-------4-5--7---7-------4-5-7-----|x 4
E|-5-5-5------------5-5-5-----------|

0:00 - 0:16

G|---------------9-|
D|-------9-----9---|
A|---5-7-----7-----|
E|-7-------7-------|

0:16 - 0:20

G|----------------------------------|
D|--------------4---------------4-6-|
A|-------4-5--7---7-------4-5-7-----|x 2
E|-5-5-5------------5-5-5-----------|

0:20 - 0:28

G|---------------9-|
D|-------9-----9---|
A|---5-7-----7-----|
E|-7-------7-------|

0:28 - 0:32

G|----------------------------|
D|----------------------------|
A|---5/7h9p7------------7-9-7-|
E|-5--------9-7-5-5-7h9-------|

0:32 - 0:36

G|---------------------------------------------|
D|---------------------------------------------|
A|-----------8-8-8-8-8-----------8-8-8-8-8-----|
E|-8-8-8-8-8-----------8-8-8-8-8-----------7-5-|

0:36 - 0:41


G|-14-16-14----------------|
D|----------16-14----------|
A|----------------16-14----|
E|----------------------17-|

0:41`- 0:44

G|-----------------------------------------|
D|-----------------------------------------|
A|-----------8-8-8-8-8-----------8-8-8-8-8-|
E|-8-8-8-8-8-----------8-8-8-8-8-----------|

0:44 - 0:48

G|----------------------------------|
D|--------------4---------------4-6-|
A|-------4-5--7---7-------4-5-7-----|x 4
E|-5-5-5------------5-5-5-----------|

0:48 - 1:04

G|---------------9-|
D|-------9-----9---|
A|---5-7-----7-----|
E|-7-------7-------|

1:04 - 1:08


G|----------------------------------|
D|--------------4---------------4-6-|
A|-------4-5--7---7-------4-5-7-----|x 2
E|-5-5-5------------5-5-5-----------|

1:08 - 1:16

G|---------------9-|
D|-------9-----9---|
A|---5-7-----7-----|
E|-7-------7-------|

1:16 - 1:20

G|----------------------------------|
D|--------------4---------------4-6-|
A|-------4-5--7---7-------4-5-7-----|
E|-5-5-5------------5-5-5-----------|

1:20 - 1:24

G|---------------------------------------------|
D|---------------------------------------------|
A|-----------8-8-8-8-8-----------8-8-8-8-8-----|
E|-8-8-8-8-8-----------8-8-8-8-8-----------7-5-|

1:24 - 1:28

G|-14-16-14-16-18-|
D|----------------|
A|----------------|
E|----------------|

1:28 - 1:32

G|-----------------------------------------14----14----14----14-14-14-14--14----|
D|--------------------------------------------14----14----14-----------------14-|
A|-----------8-8-8-8-8-----------8-8-8-8-8--------------------------------------|
E|-8-8-8-8-8-----------8-8-8-8-8------------------------------------------------|

1:32 - 1:44

At this point, another bass line is added.

Bass line A:

G|-14----14----14----14----14----14----14----14----|
D|----14----14----14----14----14----14----14----14-|
A|-------------------------------------------------|x 2
E|-------------------------------------------------|

1:44 - 2:00

Bass line B:

G|----------------------------------|
D|--------------4---------------4-6-|
A|-------4-5--7---7-------4-5-7-----| x 4
E|-5-5-5------------5-5-5-----------|

1:44 - 2:00
            

comments powered by Disqus
↑ Back to top | Of Montreal Bass for My British Tour Diary. Lyrics for acoustic guitar and electric guitar. Tablatures and chords are parodies/interpretations of the original songs. You may use it for private study, scholarship, research or language learning purposes only