» » »

Of Montreal, Mingusings Tabs (ver.1)

Artists:  A B C D E F G H I J K L M N O P Q R S T U V W X Y Z # 

Mingusings Tabs (ver.1)

Of Montreal Tabs
 Rating:
4.2/5 (5 votes)
Mingusings lessons Tabs too difficult? Try these video lessons and learn fast
                G#         G#
C#         C#

G#
Boy, I wish you weren't such a paranoid actress
And I the assassinated candidate
       C#
I feel like an accidental species
Some mutant love child, never meant to be

G#
No motion dancing
I feel like we're an impossibility
Trying to keep the heart in the head
                         C#
But I was so down on the closing night
Couldn't even fake a smile
Wanted to fire all my friends
And start over again

G#
Sisters, don't you know
Our sh*t is only going to get better
Don't you know, don't you know, don't you know
  C#
I feel like the last time is going to be my final collapse

G#
Sisters, don't you know
Our sh*t is only going to get better
Oh, oh, oh
  C#                                                 B
I feel like the last time is going to be my final collapse

  B
I know from past experience
                              A6b5
He never takes it easy on his readers
          G                    
And you become a foreign substance
A7    D
Lying in your familial bed


Bm         G
G    

Bm                            G
Technology makes such an ugly mother
       Bm                          G
But no lessons does it offer, only chaos scenarios
        Bm                                     G
And the dream that we've inherited, look, it's just random numbers
           Bm                                    G
Still they love you at the office because you've been 
                                           Bm
The subject of countless masturbation fantasies

   G
Ah-oh

B5 B5 C#5 E 


Main riff:(0:00)

Electric Guitar
   G#
e|-----------------------------------------------|
b|-----------------------------------------------|
g|--------5-----------5-----------5----------5---|
d|--6---6-------6---6-------6---6-------6---6----|
a|----6-----3-----6-----3-----6-----3-----6----3-|
e|-----------------------------------------------|
   C#
e|-------------------------------|
b|-------------------------------|
g|-6---------------6---------5---|
d|---6-43------6-4-------6-4-----|
a|-----------4---------4---------|
e|-------------------------------|


Verse riff on keyboard

Keyboard
   G#
e|---------------------------------|
b|-5-6-4---46-5-65-5-6-4---46-5-65-|
g|-5-5-4---45-5-55-5-5-4---45-5-55-|
d|-6-6-6---66-6-66-6-6-6---66-6-66-|
a|---------------------------------|
e|---------------------------------|

Repeat as necessary until:

   C#
e|-9---9---9---9---9---9---|
b|-9---9---9---9---9---9---|
g|-10--10--10--10--10--10--|
d|-------------------------|
a|-------------------------|
e|-------------------------|

Repeat throughout verse.


Bridge:(1:40)

Guitar
   B
e|-7---7---7---7---7---7---7---7----|
b|--7---7---7---7---7---7---7---7---|
g|---8---8---8---8---8---8---8---8--|
d|----9---9---9---9---9---9---9---9-|
a|----------------------------------|
e|----------------------------------|
Bass
g|-8-----------8-/-11------131311-\-|
d|----------------------------------|
a|----------------------------------|
e|----------------------------------|

Guitar
   B                               A6b5                   G           A7
e|-7---7---7---7---7---7---7---7-------------------------------------------|
b|--7---7---7---7---7---7---7---7--2---2---2-------2------0---0---0---2----|
g|---8---8---8---8---8---8---8---8--2---2----2-------2-----0---0---0---20--|
d|----9---9---9---9---9---9---9---9--4---4-----4-------4----0---0---0----2-|
a|------------------------------------6---6------6-------6---2---2---2-----|
e|-------------------------------------------------------------------------|
Bass
g|--------------8------------8-------------111111--------------------------|
d|-9-9-9-9-9-9-9-9-9-9-9-9-9---9-8-7-7-7-7---------111111-3-3-3-3-3-3/5-5/-|
a|-------------------------------------------------------------------------|
e|-------------------------------------------------------------------------|

Guitar
   D
e|-2---2---2---2--3-5-|
b|--3---3---3---------|
g|---2---2---2---4----|
d|----4---4---4-------|
a|--------------------|
e|--------------------|
Bass
g|-7-7-7-7-9-9-11-11--|
d|--------------------|
a|--------------------|
e|--------------------|


Section 2:(1:57)
Guitar
e|---------------------5---------------------------|
b|-------------------3-----------------------------|
g|-----------------------4-------------------------|
d|-------------------------------------------------|
a|-------------------------------------------------|
e|-------------------------------------------------|
Bass
g|-4-4-4-4-6-6-7-7---------------------------------|
d|-----------------5-5-5-5-5-5-54--5-5-54--5-6-8---|
a|-------------------------------------------------|
e|-------------------------------------------------|

Repeat the bass line for the rest of the song with this riff added (two 
guitars tabbed for one)

Guitar
e|-55555555101010101212121277777777777777557777775533223---|
b|-77777777101010101212121288888888888888778888887755335---|
g|---------------------------------------------------------|
d|---------------------------------------------------------|
a|---------------------------------------------------------|
e|---------------------------------------------------------|

End with:
Guitar
e|---------000000000000000-------|
b|---------000000000000000-------|
g|-4-4---6-111111111111111-------|
d|-4-4---6-222222222222222-------|
a|-2-2---4-222222222222222-------|
e|---------000000000000000-etc.--|
            
Submit corrections

comments powered by Disqus
↑ Back to top | Of Montreal Tabs for Mingusings. Lyrics for acoustic guitar and electric guitar. Tablatures and chords are parodies/interpretations of the original songs. You may use it for private study, scholarship, research or language learning purposes only