» » »

Of Montreal, For Our Elegant Castle Bass tabs (ver.1)

Artists:  A B C D E F G H I J K L M N O P Q R S T U V W X Y Z # 

For Our Elegant Castle Bass tabs (ver.1)

Of Montreal Tabs
 Rating:
4/5 (4 votes)
For Our Elegant Castle lessons Tabs too difficult? Try these video lessons and learn fast
1
                Of Montreal - For Our Elegant Castle

Bassist: Kevin Barnes
Tuning: Standard

----------------------------------------------17------------|
-x-10-12-10-12/17--15-17-15-17/19-17-19-17-19---17-19-17-19-|            Intro x2
------------------------------------------------------------|
------------------------------------------------------------|

----------------------------------------------------------|
-----------------1414------------121214p12------771010----|              Chorusx2
-55/88/1212111010----141410101212-------------88------88--|
------------------------------------------1212------------|

------------9-12--11-10-7------------------------------------------|
----10----10-------------8--12--------------------11-8-10----------|     Verse1
--10---10----------------------13-10----------/9----------12-10----|
-8-------------------------------------9-11/13-----------------13--|


--6-6-6-6-7-7-7-7--14--14--14--14-5-5-5-5---------------|
--------------------------------------------------------|                Verse2
-4-4-4-4-5-5-5-5-12--12--12--12--3-3-3-3----------------|
--------------------------------------------------------|

-----------12------------------14-12----------------------|
-------15----14-12----------15-------14-------------------|
-13-16------------15--13-16-------------------------------|
------------------------------------------17\\\\\\\\\\\\\-|


Chorus

Verse1

---------------------------------------------------------|
-12------------12-15/17p15---12--12-14/15----------12----|               Verse3
---15-13-13-15-----------------13---------13-12--15------|
---------------------------------------------------------|

---------------------------------------------------------|
-17----17-15---------------------------------------------|
---17-------1515-1212-15----------------------88888888---|
----------------------------33333333-66666666------------|


--7-7-10-10--12--12--14--14-|
----------------------------|
-5-5-9--9--10--10--12--12---|
----------------------------|

---------------------1515-1414-|
------/12----------------------|
-13/10-------7h10/13-----------|
-------------------------------|


Chorus


--7-7-7-7-8-8-10-11-6-6------4-4-444431---|
---------------------------------------4--|                            Outro
-5-5-5-5-6-6-8--9--4-4-444312-2-----------|
------------------------------------------|

-----------------------------------13--------------------------------15-|
-17---13--13--13--17-15171517151715----17--17--17--17---13--13--13-17---|
----15--15--15--15-------------------18--18--18--18---15--15--15--------|
------------------------------------------------------------------------|
            
Submit corrections

comments powered by Disqus
↑ Back to top | Of Montreal Bass for For Our Elegant Castle. Lyrics for acoustic guitar and electric guitar. 1 Tablatures and chords are parodies/interpretations of the original songs. You may use it for private study, scholarship, research or language learning purposes only