» » »

For Our Elegant Caste Tabs (ver.1)

Artists:  A B C D E F G H I J K L M N O P Q R S T U V W X Y Z # 

For Our Elegant Caste Tabs (ver.1)

Of Montreal
Rating:
5/5 (3 votes)

Hard to play? Try these video lessons and learn fast.
                This song is basically bass, keyboard and drums. I've tabbed out all the 
different keyboard sounds on one stave for simplicity.


             Dm                    G7
We can do it softcore if you want
                              Am          C
But you should know I take it both ways
             Dm                    G7
We can do it softcore if you want
                              C            Am
But you should know that I go both ways


             Dm                    G7
We can do it softcore if you want
                              Am          C
But you should know I take it both ways
             Dm                    G7
We can do it softcore if you want
                              C            Am
But you should know that I go both ways

C

C                             Bb
Georgie said romantic love is flat
              Gm
(Georgie said that)
         Bbm                          F
Only for people with no real ambition in their life
(No life)
    
    C#aug                 Dm
But oh, List Christee disagrees
                  Am                     C
She sees into the core of my poor machine
(I'll tell you what she sees)
Bbm                        Gdim
Frightened cornered Gemini tactics and
Bbm                         Gdim
Attempts to crack the party code
And there's one more thing


We can do it softcore if you want
But you should know I take it both ways
We can do it softcore if you want
But you should know that I go both ways

Our bodies became what has been him so really turned on
Became a freaky permutation
Something like Voltron

           Bb                            Dm
Then I was wrapped in discourse with the magazine reader
Bb            Dm                        Gm                           Bb   F
The mutual conclusion was I'm not worth knowing because I'm probably dead
   G               Bb   F
So I'm exposed but no solution

D     D/F#    G7  A
  Lalalalalala
D     D/F#    G7  A
  Lalalalalala

Bb   Edim

We can do it softcore if you want
But you should know I take it both ways
We can do it softcore if you want
But you should know that I go both ways


Daug  Ebm
Oh 
C#7    Ebm
Lalala lalala

Lalalalalalalalalalalalalalala
Ddim7           Cm
Lalalalalalalalalalalalalalala
Ddim7           Cm
Lalalalalalalalalalalalalalala 

F#



Intro:(0:00)
Keyboard
   Dm              G7              Am              C
e|---------------------------------5-------------------------------|
B|-6---------------6---------------5---------------5---------------|
G|-7---------------7---------------5---------------5---------------|
D|-7---------------9-------------------------------5---------------|
A|-----------------------------------------------------------------|
E|-----------------------------------------------------------------|
Bass
G|-------------------------------14--------------17----------------|
D|---------------17------14171417--------17191719--------17191719--|
A|-------15171517--------------------------------------------------|
E|-----------------------------------------------------------------|

Keyboard
   Dm              G7              C               Am
e|---------------------------------8---------------5---------------|
B|-6---------------6---------------8---------------5---------------|
G|-7---------------7---------------9---------------5---------------|
D|-7---------------9-----------------------------------------------|
A|-----------------------------------------------------------------|
E|-----------------------------------------------------------------|
Bass
G|-------------------------------14--------------17----------------|
D|---------------17------14171417--------17191719------------------|
A|-------15171517--------------------------------------------------|
E|-----------------------------------------------------------------|



Chorus:(O:14)
Keyboard
   Dm              G7              Am              C
e|---------------------------------5-------------------------------|
B|-6---------------6---------------5---------------5---------------|
G|-7---------------7---------------5---------------5---------------|
D|-7---------------9-------------------------------5---------------|
A|-----------------------------------------------------------------|
E|-----------------------------------------------------------------|
Bass
G|---------------------9-9-------------5-5-7-5-------------5-5-----|
D|---------7-7-6-6-5-9-----9-9-5-/-7-7-----------------7-7-----7/5-|
A|-5-5-8-8-------------------------------------7-/-8-8-------------|
E|-----------------------------------------------------------------|

Keyboard
   Dm              G7              C               Am
e|---------------------------------8---------------5---------------|
B|-6---------------6---------------8---------------5---------------|
G|-7---------------7---------------9---------------5---------------|
D|-7---------------9-----------------------------------------------|
A|-----------------------------------------------------------------|
E|-----------------------------------------------------------------|
Bass
G|---------------------9-9-------------5-5-7-5-------------5-5-7-7-|
D|---------7-7-6-6-5-9-----9-9-5-/-7-7-----------------7-7---------|
A|-5-5-8-8-------------------------------------7-/-8-8-------------|
E|-----------------------------------------------------------------|

Keyboard
   C
e|-1212121212121212121212121212121212121212121212121212121212121212-|
B|-1313131313131313131313131313131313131313131313131313131313131313-|
G|------------------------------------------------------------------|
D|------------------------------------------------------------------|
A|------------------------------------------------------------------|
E|------------------------------------------------------------------|
Bass
G|---------19----------19------19--17------------------------------|
D|-----------------------------------------------------------------|
A|-----------------------------------------------------------------|
E|-----------------------------------------------------------------|


Verse:(0:31)
Keyboard
   C                               Bb              Gm
e|-8-8-8-8-8-8-8-8-8-8-8-8-8-8-8-8-6-6-6-6-6-6-6-6-6-6-6-6-6-6-6-6-|
B|-8-8-8-8-8-8-8-8-8-8-8-8-8-8-8-8-6-6-6-6-6-6-6-6-8-8-8-8-8-8-8-8-|
G|-9-9-9-9-9-9-9-9-9-9-9-9-9-9-9-9-7-7-7-7-7-7-7-7-7-7-7-7-7-7-7-7-|
D|-----------------------------------------------------------------|
A|-----------------------------------------------------------------|
E|-----------------------------------------------------------------|
Bass
G|-------------------9-12------11--10--------------7---------------|
D|-10--10----------10----------------12--------------8-------------|
A|---10--------10----------------------13--------------10----------|
E|-----------------------------------------------------------------|

Keyboard
   Bbm                             F
e|-6-6-6-6-6-6-6-6-6-6-6-6-6-6-6-6-5-5-5-5-5-5-5-5-5-5-5-5-5-5-5-5-|
B|-6-6-6-6-6-6-6-6-6-6-6-6-6-6-6-6-6-6-6-6-6-6-6-6-6-6-6-6-6-6-6-6-|
G|-6-6-6-6-6-6-6-6-6-6-6-6-6-6-6-6-5-5-5-5-5-5-5-5-5-5-5-5-5-5-5-5-|
D|-----------------------------------------------------------------|
A|-----------------------------------------------------------------|
E|-----------------------------------------------------------------|
Bass
G|-----------------------------------------------------------------|
D|-------------------------11--8---10--10--7---7-------------------|
A|---------8-------11------------------------------10--10--8---8---|
E|-9---------------------------------------------------------------|

Keyboard
   C#aug           Dm              Am              C
e|------------------------------------------------------------------|
B|-------------------------------------------------5----------------|
G|-6---------------7---------------5---------------5----------------|
D|-7---------------7---------------7---------------5----------------|
A|-8---------------8---------------7--------------------------------|
E|------------------------------------------------------------------|
Bass
G|-----------------------------------14--14--14--14-----------------|
D|---11--11--11--11--12--12--12--14------------------10--10--10--10-|
A|---------------------------------12--12--12--12-------------------|
E|-9---9---9---9---10--10--10--12------------------8---8---8---8----|

Keyboard
   Bbm             Gdim            Bbm             Gdim
e|-------------------------------------------------------------5p3---5p3---|
B|-2---------------2---------------2---------------2--------------5p0---5p0|
G|-3---------------3---------------3---------------3-----------------------|
D|-3---------------5---------------3---------------5-----------------------|
A|-------------------------------------------------------------------------|
E|-------------------------------------------------------------------------|
Bass
G|-----10------12----------------------10------14--12----------------------|
D|---11------------14------12--10----11--------------------14--------------|
A|-13------------------------------13--------------------------------------|
E|-------------------------------------------------------------------------|

Chorus(1:01)
Without the C chord at the end

Verse(1:14)
Only the first half then to this:(1:28)

Keyboard
   Bb              Dm              Bb              Dm
e|-6-----------6---5-----------5---6-----------6---5-----------5----|
B|-6-----------6---6-----------6---6-----------6---6-----------6----|
G|-7-----------7---7-----------7---7-----------7---7-----------7----|
D|------------------------------------------------------------------|
A|------------------------------------------------------------------|
E|------------------------------------------------------------------|
Bass
G|---------------------101210---------------------------------------|
D|-----12108-1012----------------------101215--8---7-7-----10-------|
A|-----------------------------------------------------8-8----------|
E|------------------------------------------------------------------|

Keyboard
   Gm              Bb      F       G               Bb      F
e|-6-----------6---6-------1-------3-----------3---6-------1--------|
B|-8-----------8---6-------1-------3-----------3---6-------1--------|
G|-7-----------7---7-------2-------4-----------4---7-------2--------|
D|------------------------------------------------------------------|
A|------------------------------------------------------------------|
E|------------------------------------------------------------------|
Bass
G|-1212--------12--1010---------------------------------------------|
D|-----1212------------1010----1010---------------------------------|
A|-------------------------1212----------------------------8-8-8-8--|
E|---------------------------------3-3-3-3-3-3-3-3-6-6-6-6----------|

Keyboard
   D               G7      A       D               G7      A
e|-2-----------2---1-----------1---2-----------2---1-----------1----|
B|-3-----------3---3-----------3---3-----------3---3-----------3----|
G|-2-----------2---4-----------4---2-----------2---4-----------4----|
D|------------------------------------------------------------------|
A|------------------------------------------------------------------|
E|------------------------------------------------------------------|
Bass
G|-----------11--11--12--12--14--14----------11--11--12--12--14--14-|
D|---12--12--------------------------12--12-------------------------|
A|---------9---9---10--10--12--12----------9---9---10--10--12--12---|
E|-10--10--------------------------10--10---------------------------|

Keyboard
   Bb              Edim
e|-10--------------6----------------|
B|-11--------------8----------------|
G|-10--------------9----------------|
D|----------------------------------|
A|----------------------------------|
E|----------------------------------|
Bass
G|-3-----------------------15151414-|
D|---3s12----------2s5s8------------|
A|----------------------------------|
E|----------------------------------|

Chorus(1:52)

Outro:(2:06)

Keyboard
   Daug            Ebm             C#7             Ebm
e|-------------------------------------------------------------------|
B|-3---------------4---------------0---------------------------------|
G|-3---------------3---------------1---------------3-----------------|
D|-4---------------4---------------3---------------4-----------------|
A|-------------------------------------------------6-----------------|
E|-------------------------------------------------------------------|
Bass
G|---7---7---7---7---8---8---10--11----------------------------------|
D|-----------------------------------11--11--119-8-9---9---888-6-----|
A|-5---5---5---5---6---6---8---9-------------------------------------|
E|---------------------------------9---9---9-------------------------|

Vocal break

Keyboard
   Cm  Ddim7                           Cm
e|---|------------------------------------------------------------------|
B|---|-3---------------0---------------4--------------------------------|
G|-5-|-4---------------1---------------5---------------5----------------|
D|-5-|-6---------------3---------------5---------------5----------------|
A|-6-|-------------------------------------------------6----------------|
E|---|------------------------------------------------------------------|
Bass
G|---|-------------------------------15--12--12--12--12------------1215-|
D|-17|---15--15--15--1715171517151715--13--13--13--13----13--13--13-----|
A|---|-17--17--17--17----------------------------------15--15--15-------|
E|---|------------------------------------------------------------------|

Keyboard
   Ddim7                           Cm
e|------------------------------------------------------------------|
B|-3---------------0---------------4--------------------------------|
G|-4---------------1---------------5---------------5----------------|
D|-6---------------3---------------5---------------5----------------|
A|-------------------------------------------------6----------------|
E|------------------------------------------------------------------|
Bass
G|-------------------------------15--12--12--12--12------------1215-|
D|---15--15--15--1715171517151715--13--13--13--13----13--13--13-----|
A|-17--17--17--17----------------------------------15--15--15-------|
E|------------------------------------------------------------------|

Keyboard
   F#
e|------------|
B|------------|
G|-3---3---3--|
D|-4---4---4--|
A|-4---4---4--|
E|------------|
Bass
G|-11--11--11-|
D|------------|
A|------------|
E|------------|

Cheers.
            
Hard to play? Try these video lessons and learn fast. | Correct




comments powered by Disqus
↑ Back to top | Tablatures and chords are parodies/interpretations of the original songs. You may use it for private study, scholarship, research or language learning purposes only