>
 >
Cato As A Pun

Cato As A Pun Guitar Tabs

Of Montreal - Cato As A Pun chords, tabs, tablatures, lyrics

Guitar lessons | Add/correct | Request | Top 50 tabs Artists:  A B C D E F G H I J K L M N O P Q R S T U V W X Y Z 0-9

Cato As A Pun Guitar Tabs – Of Montreal

CD, Sheet music, Poster

Do you like Cato As A Pun? Share with your friends now
Tabs
Fm       Eb
Fm       Eb
Fm       Eb
Fm       Eb   


Db                 Gdim/Db
Cato, play with my head
                 F              Ab
I won't know the difference
Db                     Gdim/Db
If we're living in the novelist 
         F         Ab
Or statistician

Cato, mess with my concepts
My inner vision
Like a strobing light
Please confuse my every decision


Fm    Eb
Fm    Eb
Fm    Eb 
Fm    Eb


I can't even pretend that you are my friend
What has happened to you and I?
And don't say that I have changed
Because, man, of course I have

Are you far too depressed now even to answer the phone?
I guess you just want to
Shave your head, have a drink, and be left alone
Is that too much to ask? 


Fm    Eb
Fm    Eb
Fm    Eb 
Fm    Eb



Intro(0:00)

Guitar 1
   Fm         Eb               Fm               Eb
e|-8----------6----------------8----------------6------------|
b|-9----------8----------------9----------------8------------|
g|-10---------8----------------10---------------8------------|
d|-----------------------------------------------------------|
a|-----------------------------------------------------------|
e|-----------------------------------------------------------|
Guitar 2
e|-----------------------------------------------------------|
b|-----------------------------------------------------------|
g|-------8-10-8-10/12----13-12-13-12-10-10-8-10-10/12--------|
d|-10-------------------------------------------------8-8--/-|
a|-----------------------------------------------------------|
e|-----------------------------------------------------------|

(0:09)
Guitar 1
   Fm        Eb             Fm             Eb
e|-8---------6--------------8--------------6--------|
b|-9---------8--------------9--------------8--------|
g|-10--------8--------------10-------------8--------|
d|--------------------------------------------------|
a|--------------------------------------------------|
e|--------------------------------------------------|
GUitar 2
e|--------------------------------------------------|
b|-13----11-9-9\8-----6/8\6-8/9---------------------|
g|----------------------------------8/10\8-10/12----|
d|--------------------------------------------------|
a|--------------------------------------------------|
e|--------------------------------------------------|
Keyboard 1
e|--------------------------------------------------|
b|--------------------------------------------------|
g|--------------------------------------------------|
d|---------------------------------6----------------|
a|-8-------8-6----------6---8-----------8--6--------|
e|-------8------------8---8-------------------------|

(0:19)
Keyboard 1
   Fm         Eb            Fm           Eb
e|-------------------------------------------------|
b|-------------------------------------------------|
g|-------------------------------------------------|
d|---------------------------------6---------------|
a|-8-------8--6---------6---8---------8--6---------|
e|-------8------------8---8------------------------|
Keyboard 2
e|-------------------------------------------------|
b|-------------------------------------------------|
g|---------------------------------8---------------|
d|-10----6-10-8-------6-8-6-10--------10-8---------|
a|-------------------------------------------------|
e|-------------------------------------------------|

(0:28)
Keyboard 1
   Fm         Eb            Fm           Eb
e|---------------------------------------------------------------------------------|
b|---------------------------------------------------------------------------------|
g|---------------------------------------------------------------------------------|
d|----------------------------------------------------------6----------------------|
a|-8--------------8--6------------------6---8------------------8--6----------------|
e|--------------8---------------------8---8----------------------------------------|
Keyboard 2
e|---------------------------------------------------------------------------------|
b|---------------------------------------------------------------------------------|
g|----------------------------------------------------------8----------------------|
d|-10-----------6-10-8----------------6-8-6-10-----------------10-8----------------|
a|---------------------------------------------------------------------------------|
e|---------------------------------------------------------------------------------|
Guitar 3
e|---------------------------------------------------------------------------------|
b|-13p11--------------13p11-----------------13p11-----------------13p11------------|
g|------10b12--------------10b12-----------------10b12-----------------10b12-------|
d|---------------------------------------------------------------------------------|
a|---------------------------------------------------------------------------------|
e|---------------------------------------------------------------------------------|
Guitar 4
e|-----------------11-----------------11--------------------11---------------------|
b|--------------13-----------------13--------------------13------------------12p10-|
g|---------------------------------------------------------------------------------|
d|---------------------------------------------------------------------------------|
a|---------------------------------------------------------------------------------|
e|---------------------------------------------------------------------------------|




Verse:(0:38)

GUitar
   Db      Gdim/Db F       Ab
e|-4-------6-------8-------8-------|
b|-6-------8-------10------9-------|
g|-6-------6-------10------8-------|
d|---------------------------------|
a|---------------------------------|
e|---------------------------------|

Repeat as necessary. The verses finish on the Gdim/Db chord.

Chorus: second half of intro (after the solo)




Outro:

(2:19)
Keyboard 3
   Fm              Eb              Fm              Eb
e|-------------6-8-----------------------------6-8-------1111-1111-8-8-|
b|-66-66-66-66-----66-66-66-66-4---66-66-66-66-----88-88---------------|
g|-------------------------------5-------------------------------------|
d|---------------------------------------------------------------------|
a|---------------------------------------------------------------------|
e|---------------------------------------------------------------------|

(2:29)
Keyboard 4
   Fm          Eb                  Fm       Eb
e|----------------------------------------8----8-11-8---8---|
b|-----9-----------------------------9------11--------11----|
g|-------10----8---10-8---10-8---------10-------------------|
d|----------10----------------------------------------------|
a|----------------------------------------------------------|
e|----------------------------------------------------------|

    Fm         Eb                 Fm        Eb
e|----------------------------------------8-----------------|
b|-----9-----------------------------9------11--------------|
g|--10---10----8---10-8---10-8---------10-----------8-10----|
d|----------10----------------------------------------------|
a|----------------------------------------------------------|
e|----------------------------------------------------------|

   Fm          Eb                 Fm        Eb            (repeat to fade)
e|----------------------------------------8----8-11-8---8---|
b|-9---------------------------------9------11--------11----|
g|-------10----8---10-8---10-8---------10-------------------|
d|----------10----------------------------------------------|
a|----------------------------------------------------------|
e|----------------------------------------------------------|





Comments


Popular Of Montreal tabs & chords
Plastis Wafer 2 Bass Tabs
We Were Born The Mutants Again With Leafling Bass Tabs
Heimdalsgate Like A Promethean Curse Chords
My Darling Ive Forgotten Chords
Our Love Is Senile Chords
Plastis Wafer Chords
Raindrop In My Skull Chords
This Feeling Dereks Theme Chords
Time I Wish You Were Born A Girl Chords
No Conclusion Tabs


Song lyrics



↑ Back to top | Tablatures and chords are parodies/interpretations of the original songs. You may use it for private study, scholarship, research or language learning purposes only
© 2014 AZChords.com Contact us | Privacy policy | DMCA | Add/correct tabs | Request tabs | Top 50 tabs