» » »

Of Monsters And Men, Little Talks Tabs (ver.3)

Artists:  A B C D E F G H I J K L M N O P Q R S T U V W X Y Z # 

Little Talks Tabs (ver.3)

Of Monsters And Men Tabs
 Rating:
4/5 (4 votes)
Little Talks lessons Tabs too difficult? Try these video lessons and learn fast
                -------------------------------------------------------------------------------
                             Little Talks-Of Monsters and Men
-------------------------------------------------------------------------------
Tuning:standard
Only good modern song there is


Intro (0:01)
e|----1-1-1----1---1~-4~~----1-1-1--4-1--------------------1-1-1---1---1-4tp-|
B|--2-------2----2---------2-------------4----2----1---2--4------2---2-------|
G|---------------------------------------------------------------------------|
D|---------------------------------------------------------------------------|
A|---------------------------------------------------------------------------|
E|---------------------------------------------------------------------------|
                     (slow slide)
e|---1-1-1-4-1---------------------------------------------------------------|
B|-------------4-2-----------------------------------------------------------|
G|------------------5-\\\\\\\------------------------------------------------|
D|---------------------------------------------------------------------------|
A|---------------------------------------------------------------------------|
E|---------------------------------------------------------------------------|

The verse is chords (0:20),(1:16) and
e|---1-------2------4-----|
B|---2-------2------6-----|
G|---3-------3------6-----|
D|---3-------4------6-----|  
A|---1-------4------4-----|
E|--(1)------2-----(4)----|
     Bb      F#     C#    


You keep playing those Chords over and over for the verse

For the Chorus you can either play the intro once or play the verse chords and add a G#

Chorus (0:57) ,(1:53),
e|---1-----2------4----5---|
B|---2-----2------6----5---|
G|---3-----3------6----5---|
D|---3-----4------6----6---|  
A|---1-----4------4----6---|
E|--(1)----2-----(4)---4---|
     Bb    F#     C#   G#  

Bridge (2:13), (3:07)
e|-------------------------------1-1-1-1--4-1--------------------------------|
B|---------4-6-7-8--9--7\------2---------------4-2~~~------------------------|
G|---3-4-6-------------------------------------------------------------------|
D|---------------------------------------------------------------------------|
A|---------------------------------------------------------------------------|
E|---------------------------------------------------------------------------|

e|-4-4-4---4-----------------------------------------------------------------|
B|-------7---7-7-------4-4---------------------------------------------------|
G|---------------6-6-6-----6-4-4---3---1-------------------------------------|
D|---------------------------------------------------------------------------|
A|---------------------------------------------------------------------------|
E|---------------------------------------------------------------------------|

Intro\chorus         x1
Verse (chords)       x8
Intro/chorus         x1
Verse                x8 
intro/chorus         x1
Bridge               x1
Verse                x4
Bridge               x2            



************************************

| /   slide up
| \   slide down
| h   hammer-on
| p   pull-off
| ~   vibrato
| +   harmonic
| x   Mute note
| b   Bend
| pb  Pre-bend
| br  Bend release
| pbr Pre-bend release
| brb Bend release bend
| t   Trill
| tp  tremelo pick
***********************************
            
Submit corrections

comments powered by Disqus
↑ Back to top | Of Monsters And Men Tabs for Little Talks. Lyrics for acoustic guitar and electric guitar. Tablatures and chords are parodies/interpretations of the original songs. You may use it for private study, scholarship, research or language learning purposes only