» » »

Little Talks Bass tabs (ver.2)

Artists:  A B C D E F G H I J K L M N O P Q R S T U V W X Y Z # 

Little Talks Bass tabs (ver.2)

Of Monsters And Men
Rating:
0/5 (0 votes)

Hard to play? Try these video lessons and learn fast.
                Intro: Hey! Hey! Hey!
G|--------------------------|
D|--------------------------|
A|-1111------4444-----------| 4x
E|------2222------4444------|

Verse:
    Part 1: I don't like walking around this old and empty house.
G|--------------------------|
D|--------------------------|
A|-1~-----------4~----------| 1x
E|--------2~----------------|
    Part 2: So hold my hand, I'll walk with you my dear.
G|--------------------------|
D|--------------------------|
A|-1~-----------4/11~-------| 1x
E|--------2~----------------|
    Part 3: The stairs creak as I sleep, it's keeping me awake...
G|--------------------------|
D|--------------------------|
A|-1~-----------4~----------| 5x
E|--------2~----------------|
    Part 4: Our bodies safe to shore.
G|--------------------------|
D|--------------------------|
A|-1111------44444----------| 1x
E|------2222----------------|

Chorus: Hey! Hey! Hey!
G|--------------------------|
D|--------------------------|
A|-1111------4444-----------| 4x
E|------2222------4444------|

Verse:
    Part 1: There's an old voice in my head that's holding me back.
G|--------------------------|
D|--------------------------|
A|-1~-----------4~----------| 1x
E|--------2~----------------|
    Part 2:I tell her that I miss our little talks.
G|--------------------------|
D|--------------------------|
A|-1~-----------4/11~-------| 1x
E|--------2~----------------|
    Part 3: Soon it will all be over, buried with our past...
G|--------------------------|
D|--------------------------|
A|-1~-----------4~----------| 5x
E|--------2~----------------|
    Part 4: Our bodies safe to shore.
G|--------------------------|
D|--------------------------|
A|-1111------44444----------| 1x
E|------2222----------------|

Chorus: Don't listen to a word I say...
G|--------------------------|
D|--------------------------|
A|-1111------4444-----------| 4x
E|------2222------4444------|

Brass Solo:
G|--------------------------|
D|--------------------------|
A|-1111------4444-----------| 4x
E|------2222------4444-6~---|(only play the six the fourth time)

Bride:
    Part 1:
G|--------------------------|       G|-------------------|
D|--------------------------|       D|-------------------|
A|--------------------------| 5x or A|-----1~------------| 5x
E|-----6~-------------------|       E|-------------------|
    Part 2: Now wait, wait, wait for me...
G|--------------------------|
D|--------------------------|
A|-1~----4~--1~----44444----| 1x
E|----2~--------2~----------|

Chorus:
    Part 1: Don't listen to a word I say...
G|--------------------------|
D|--------------------------|
A|-1111------4444-----------| 8x
E|------2222------4444------|
    Part 2: Though the truth may vary this...
G|--------------------------|
D|--------------------------|
A|-1~----4~-----1~----4~----| 2x
E|----2~----4~-----2~-------|
            
Hard to play? Try these video lessons and learn fast. | Correct




comments powered by Disqus
↑ Back to top | Tablatures and chords are parodies/interpretations of the original songs. You may use it for private study, scholarship, research or language learning purposes only