» » »

Oceano, Samael The Destroyer Tabs (ver.1)

Artists:  A B C D E F G H I J K L M N O P Q R S T U V W X Y Z # 

Samael The Destroyer Tabs (ver.1)

Oceano Tabs
 Rating:
4.2/5 (5 votes)
Samael The Destroyer lessons Tabs too difficult? Try these video lessons and learn fast
1
                riff 1 (trade off) 0-4
B---------|
F#--------|
D---------|
A-1---1---|
E-1---1---|
A-2---2---|

B-----------|
F#----------|
D-----------|
A---0----0--|
E---0----0--|
A---1----1--|

riff 2) 4-22
B------------|-----|
F#-----------|-----|
D------------|-----|
A-0-0-0-0-00-|-00--|
E-0-0-0-0-00-|-00--|
A-1-1-1-1-11-|-00--|last time

riff 3) 22-38
B--------------------------------------------------------------------------|
F#-------------------------------------------------------------------------|
D--------------------------------------------------------------------------|
A--------------------------------------------------------------------------|
E------8---------8---------7--------7---------11-----------11---------13---|
A-8-11---11-8-11---11-7-10--10-7-10--10-11-14----14-11-14----14-10-13---10-|

riff 4) 38-54 (tremolo picked
B----------------------------------|
F#---------------------------------|
D----------------------------------|
A----------------------------------|
E-5------7-----6-5--------11----10-|
A--6-5-4--5-4-----6-5-4-8----7-----|

riff 5) 54-111
B---------------------------------------|
F#--------------------------------------|
D---------------------------------------|
A-3333-2222-0000-3333-2222-0000-3-2-1-0-|
E-3333-2222-0000-3333-2222-0000-3-2-1-0-|
A-3333-2222-0000-3333-2222-0000-3-2-1-0-|

B----------------------------------------|
F#---------------------------------------|
D----------------------------------------|
A-3333-2222-0000-3333-2222-0000-3-2------|
E-3333-2222-0000-3333-2222-0000-3-2-4*---|
A-3333-2222-0000-3333-2222-0000-3-2------|

riff 6) 112-127
B------------------------------------------|
F#-----------------------------------------|
D------------------------------------------|
A-----------------------------4h7p4-3h6p3--|
E----5h8p5h8p5----4h7p4-3h6p3--------------|
A-00-----------00--------------------------|

B------------------------|
F#-----------------------|
D------------------------|
A---------------3-2-1-0--|
E---5h8p5h8p5---3-2-1-0--|
A-00---------00-3-2-1-0--|

riff 7) 129-202
B----------------|
F#---------------|
D----------------|
A-00000-00-00000-|
E-00000-00-00000-|
A-11110-10-11110-|
                                   (3*)

B-----------------|
F#----------------|
D-----------------|
A-00000-----00000-|
E-00000-----00000-|
A-11110-0-0-00000-|(w/ trade off)

B----------------|
F#---------------|
D----------------|
A-00000-00-00000-|
E-00000-00-00000-|
A-11111-11-11111-|

riff 8) 203-219
B----------------------------------------------------|
F#---------------------------------------------------|
D----------------------------------------------------|
A-888------777--------11-11-11------10-10-10---------|
E----555-------444------------888------------777-----|
A-------555-------444------------888------------777--|

riff 9) 220-237
B------------------------------------------------------------------|
F#-3/11-11-11p10-8h10-10-10-10p8-8h10-14-14-14p13-11h13-13-13-13/--|
D------------------------------------------------------------------|
A------------------------------------------------------------------|
E------------------------------------------------------------------|
A------------------------------------------------------------------|

riff 10) 237-248
B-----
F#----
D-----
A-1-2-
E-1-2-
A-1-2-

riff 11) 254-316
B-------------------------------------------------------|
F#-4/11-9-12-12-11-11-99-7-7h9-5p4-9-7-7-9-5p4-12-11-9--|
D-------------------------------------------------------|
A-------------------------------------------------------|
E-------------------------------------------------------|
A-------------------------------------------------------|

riff 12) 317-354
B-4/14-14-14-14-12-12-14-11-11---------------------------------------------|
F#-----------------------------12-12-12-11-11-14-11-11------------12-11-11-|
D-----------------------------------------------------12-12-12-9-9---------|
A--------------------------------------------------------------------------|
E--------------------------------------------------------------------------|
A--------------------------------------------------------------------------|

B------------------|
F#-----------------|
D-12-12-12-9-9-8---|
A------------------|
E------------------|
A------------------|
            
Submit corrections

comments powered by Disqus
↑ Back to top | Oceano Tabs for Samael The Destroyer. Lyrics for acoustic guitar and electric guitar. 1 Tablatures and chords are parodies/interpretations of the original songs. You may use it for private study, scholarship, research or language learning purposes only