» » »

Oceano, Samael The Destroyer Tabs (ver.2)

Artists:  A B C D E F G H I J K L M N O P Q R S T U V W X Y Z # 

Samael The Destroyer Tabs (ver.2)

Oceano Tabs
 Rating:
4.3/5 (6 votes)
Samael The Destroyer lessons Tabs too difficult? Try these video lessons and learn fast
                Band: Oceano
Tuning: Drop A

Propably the brutalest song on earth. There is no solo yet. 
And there was no tab for this song. So i tried to make the 
best with it. Enjoy and leave me a comment or correct 
the wrong parts if there is one.

Intro thing. You know how it goes

B |--------------|
F#|--------------|
D |--------------|
A |--------------|
E |--0------0----|
A |--1------1----|

Then comes the sick part with the palm muted dissonant notes

Play it 4 times

|----------------------------------|
|----------------------------------|
|----------------------------------|
|----------------------------------|
|--0-----0-----0---0-----0----0----|
|--1-----1-----1---1-----1----1----|

Little break

|---------|
|---------|
|---------|
|---------|
|-1--0----|
|-1--0----|

Next riff. Play every part 2 times

|--------------------------------|
|--------------------------------|
|--------------------------------|
|--------------------------------|
|-----5-------5-------5-------5--|
|-5-8---8-5-8---8-5-8---8-5-8---8|

|--------------------------------|
|--------------------------------|
|--------------------------------|
|--------------------------------|
|-----4-------4-------4-------4--|
|-4-7---7-4-7---7-4-7---7-4-7---7|

|-------------------------------------------|
|-------------------------------------------|
|-------------------------------------------|
|-------------------------------------------|
|------8----------8----------8----------8---|
|-8-11---11--8-11---11--8-11---11--8-11---11|

|-------------------------------------------|
|-------------------------------------------|
|-------------------------------------------|
|-------------------------------------------|
|------7----------7----------7----------7---|
|-7-10---10--7-10---10--7-10---10--7-10---10|

Then comes the TREMOLO riff

|------------------------------------|
|------------------------------------|
|------------------------------------|
|------------------------------------|
|-5-------7-----6-5----------11---10-|
|---6-5-4---6-5-----6-5-4--8----7----|

After this one comes the slammy riff
The second time you play this you make
a squeal with the low A string, third fret

|---------------------------------|
|---------------------------------|
|---------------------------------|
|---------------------------------|
|-333-222-111-333-222-111-3-2-2-1-|
|-333-222-111-333-222-111-3-2-2-1-|

After this one you go like:

|--------------------------------|
|--------------------------------|
|--------------------------------|
|------------------------8-5-7-4-|
|-----8-5-8-5----7-4-7-4---------|
|--0----------0------------------|

|----------------------------|
|----------------------------|
|----------------------------|
|----------------------------|
|-----8-5-8-5----3--2--2--1--|
|--0----------0--3--2--2--1--|

Then you know what happens after that riff. 
Just whammy bar that sh*t down to hell and play
this breakdown:

|---------------------------|----------------------------|
|---------------------------|----------------------------|
|---------------------------|----------------------------|
|---------------------------|----------------------------|
|--0-0-0-0-0--------0----0--|--------------0-0-0-0-0-----|
|--1-1-1-1-1--------1----1--|--------------1-1-1-1-1-----|

After the second time you do that squeal on the low A string,
third fret again.

There is a similar riff like that breakdown. Just play open A string
notes instead of the dissonant ones. Then do that squal again
and play the whole breakdown riff and let the notes ring out. You should
be clever enough to know what i mean ;)

Let those notes ring out. Play it over and over again until
you get diarrhoea.

|------------|------------|---------------|---------------|
|------------|------------|---------------|---------------|
|------------|------------|---------------|---------------|
|-8---8---8--|-7---7---7--|-11---11---11--|-10---10---10--|
|--5---5---5-|--4---4---4-|---8----8----8-|---7----7----7-|
|---5---5----|---4---4----|----8----8-----|----7----7-----|

At the end you play this to death:

|------------|
|------------|
|------------|
|--1----2----|
|--1----2----|
|--1----2----|

That's it! ENJOY
Buy "Depths"! It's worth the money!
            
Submit corrections

comments powered by Disqus
↑ Back to top | Oceano Tabs for Samael The Destroyer. Lyrics for acoustic guitar and electric guitar. Tablatures and chords are parodies/interpretations of the original songs. You may use it for private study, scholarship, research or language learning purposes only