>
 >
Sickness

Sickness Guitar Tabs

Obituary - Sickness chords, tabs, tablatures, lyrics

Guitar lessons | Add/correct | Request | Top 50 tabs Artists:  A B C D E F G H I J K L M N O P Q R S T U V W X Y Z 0-9

Sickness Guitar Tabs – Obituary

CD, Sheet music, Poster

Do you like Sickness? Share with your friends now
Tabs
                                 OBITUARY - SICKNESS   
                          From the Album - THE END COMPLETE
                         Copyright - ROADRUNNER RECORDS 1992
                              Version 1.0 Sept 30, 2002 


For Questions, Comments, Newest Version, or Corrections, contact


.  - palm mute           /  - slide up to
\  - slide down to       ~  - vibrato
h  - hammer on           b  - bend
p  - pull off            Suffixes for bend ^
ph - pinched harmonic     f - full bend    h - half bend
*  - see comment          r - release      t - tap bend
X  - Stuccatto            ~ - vibrato bend q - quarter bend
,  - slight palm mute    () - ghost note, sustained note
"  - Tromolo note        <> - Trill

Tuning: "D"G"C"F"A"D


Riff 1
|----------------------------------------------------|
|----------------------------------------------------|
|----------------------------------------------------|
|----------------------------------------------------|
|----------3------------------3----------3--5\6-6/5--|
|--1-1-1-1-1--1-1-1-1-1-1-1-1-1--1-1-1-1-1--3\4-4/3--|
   . . . .    . . . . . . . .    . . . .

Riff 2
|-------------------------------------------------------|
|-------------------------------------------------------|
|-------------------------------------------------------|
|-------------------------------------------------6--5--|
|--8----------------5-----------8-----------7--6--4--3--|
|--6--000000000000--3-----------6--00000000-5--4--------|


Riff 3
|--------------------------------------------------------------------|
|--------------------------------------------------------------------|
|--------------------------------------------------------------------|
|--------------------------------------------------------------------|
|------------------4444444444444444----------------------------------|
|--3333333333333333----------------22222222222222226666666666666666--|


Riff 4-A
|---------------------------------------------|
|---------------------------------------------|
|---------------------------------------------|
|--4----------7\8---3------6--5---------------|
|--4----------7\8---3------6--5---------------|
|--2----------5\6---1------4--3---------------|


Riff 4-B
|---------------------------------------------|
|---------------------------------------------|
|---------------------------------------------|
|--4----------7\8---3------6--5---------------|
|--4----------7\8---3------6--5---------------|
|--2----------5\6---1------4--3--3-3-3-3-3-3--|
                                 . . . . . .

Riff 5
|-----------------------------------------------|
|-----------------------------------------------|
|-----------------------------------------------|
|--2\3--4----------3--3---3\5--4----------6--6--|
|--2\3--4----------1--1---3\5--4----------4--4--|
|--0\1--2----0-0-0-1--1---1\3--2----0-0-0-4--4--|
             . . .                  . . .

Riff 6-A
|-----------------------------------------------|
|-----------------------------------------------|
|-----------------------------------------------|
|-----------------------------------------------|
|--5-----------5-----------5-----------3-3-3-3--|
|--3--00000000-3--00000000-3--00000000-1-1-1-1--|


Riff 6-B
|---------------------------------------------------|
|---------------------------------------------------|
|---------------------------------------------------|
|--2\3--4----------3--3-----------------------------|
|--2\3--4----------1--1---5-----------5-------------|
|--0\1--2----0-0-0-1--1---3--00000000-3--00000000---|
             . . .

Riff 6-B
|---------------------------------------------------|
|---------------------------------------------------|
|---------------------------------------------------|
|--3\5--4----------6--6-----------------------------|
|--3\5--4----------4--4---5-----------5-------------|
|--1\3--2----0-0-0-4--4---3--00000000-3--00000000---|
             . . .

Riff 7 (End Riff)
|----------------------------------------------------------|
|----------------------------------------------------------|
|----------------------------------------------------------|
|------------------------------------------------6---5-----|
|--8----------------5-----------8----------------4---3--2--|
|--6--000000000000--3-----------6--00000000-3333---0----0--|
                                            ....   .

Check out my other tabs by: Deicide, Obituary, Hypocrisy, 
Grave, Catastrophic, Six Feet Under, Incantation, Death and 
Cannibal Corpse.





Comments


Popular Obituary tabs & chords
‘Til Death 1 Tabs
Bloodsoaked Tabs
Burned In Tabs
Chopped In Half Tabs
I'm In Pain 1 Tabs
Lost Tabs
Paralyzing Tabs
Platonic Disease Tabs
Redefine Tabs
The End Complete 1 Tabs


Song lyrics



↑ Back to top | Tablatures and chords are parodies/interpretations of the original songs. You may use it for private study, scholarship, research or language learning purposes only
© 2014 AZChords.com Contact us | Privacy policy | DMCA | Add/correct tabs | Request tabs | Top 50 tabs