» » »

Rewind Tabs (ver.1)

Artists:  A B C D E F G H I J K L M N O P Q R S T U V W X Y Z # 

Rewind Tabs (ver.1)

Obituary
Rating:
0/5 (0 votes)

Hard to play? Try these video lessons and learn fast.
                                        OBITUARY - REWIND
                   Copyright Roadrunner Records 


                     Version 1.0 Aug 13, 2001




 I'm back again, with another song by Obituary. This
one's off of thier "Back From the Dead Album,Track 6."


Notation used:

. - Palm mute    / - Slide up    \ - Slide down

Tuning:"D"G"C"F"A"D


Riff 1 - A
|------------------------------------------------------|
|------------------------------------------------------|
|------------------------------------------------------| Gtr I
|--------5-\-6----3-\-4-/-3--------5-\-6---------------|
|--------3-\-4----1-\-2-/-1--------3-\-4----3-\-4-\-3--|
|--0--0----------------------0--0-----------1-\-2-\-1--|
pm .  .                      .  .

Riff 1 - B
|------------------------------------------------------|
|------------------------------------------------------|
|------------------------------------------------------| Gtr II
|--2--2---------------------2--2-----------------------|
|--2--2---------------------2--2-----------------------|
|--0--0---------------------0--0-----------------------|
pm .  .                     .  .

Fill 1
||----------------------------||
||----------------------------||
||----------------------------|| Gtr I
||--------5-\-6----3-\-4-/-3--||
||--------3-\-4----1-\-2-/-1--||
||--0--0----------------------||
pm  .  .

Riff 2 
|----------------------------------------------------|
|----------------------------------------------------|
|----------------------------------------------------|
|--2--------3--------6------5------7------6----------|
|--2--------3--------6------5------5------4----------|
|--0--------1--------4------3------5------4----------|
(Let ring............................................)

Fill 2
||--------------------------------||
||--------------------------------||
||--------------------------------|| Gtr II
||--2--------3--3--2--------5--5--||
||--2--------3--3--2--------3--3--||
||--0--------1--1--0--------3--3--||

Riff 3 - A (Play at a moderate speed)
|---------------------------------------------------------|
|---------------------------------------------------------|
|---------------------------------------------------------|
|---------------------------------------------------3--3--|
|---------------------------------------------------1--1--|
|--3-3-3-3-1-1-3-3-3-3-1-1-3-3-3-3-1-1-3-3-3-3-1-1--------|

Riff 3 - B
|---------------------------------------------------------|
|---------------------------------------------------------|
|---------------------------------------------------------|
|---------------------------------------------------5--5--|
|---------------------------------------------------3--3--|
|--3-3-3-3-1-1-3-3-3-3-1-1-3-3-3-3-1-1-3-3-3-3-1-1--------|

Riff 3 - C
|-----------------------------------------------------------------|
|-----------------------------------------------------------------|
|-----------------------------------------------------------------|
|-----------------------------------------------------------------|
|-----------------------------------------------------------------|
|-3-3-3-3-1-1-3-3-3-3-1-1-3-3-3-3-1-1-3-3-3-3-1-1-3-3-3-3-1-1-1-1-|

End
||--------||
||--------||
||--------||
||--2--2--||
||--2--2--||
||--0--0--||
pm  .  .

SONG STRUCTURE:

Gtr I  Riff (1-A) x 6
Gtr II Riff (1-B) x 2 (1-A) x 4
Fill ( 1 ) x 1 Gtr I
Riff (1-A) x 6
Riff ( 2 ) x 4
Gtr I  Riff (1-A) x 7
Gtr II Riff (1-B) x 1 (1-A) x 6
Riff ( 2 ) x 4
Fill ( 2 ) x 1 Gtr II
Riff (3-A) x 1|
Riff (3-B) x 1|-Alternate
Riff (3-A) x 1|
Riff (3-B) x 1|
Riff (3-C) x 4
Riff (3-A) x 1|
Riff (3-B) x 1|-Alternate
Riff (3-A) x 1|
Riff (3-B) x 1|
Riff (3-C) x 4
Gtr I  Riff (1-A) x 6
Gtr II Riff (1-B) x 2 (1-A) x 4
End x 1

 Check out my other Obituary tabs, "Dying, Body Bag,Pressure Point and 
Corrosive."And by Hypocrisy," Take The Throne And Attachment to the Ancestor."
            
Hard to play? Try these video lessons and learn fast. | Correct




comments powered by Disqus
↑ Back to top | Tablatures and chords are parodies/interpretations of the original songs. You may use it for private study, scholarship, research or language learning purposes only