>
 >
Redefine

Redefine Guitar Tabs

Obituary - Redefine chords, tabs, tablatures, lyrics

Guitar lessons | Add/correct | Request | Top 50 tabs Artists:  A B C D E F G H I J K L M N O P Q R S T U V W X Y Z 0-9

Redefine Guitar Tabs – Obituary

CD, Sheet music, Poster

Do you like Redefine? Share with your friends now
Tabs
                             OBITUARY - REDEFINE 
                        From the Album - WORLD DEMISE 
                     Copyright - ROADRUNNER RECORDS 1994 
                         Version 2.0 - SEPTEMBER 2002 



For Questions, Comments, Newest Version, or Corrections contact 

 

.  - palm mute           /  - slide up to 
\  - slide down to       ~  - vibrato 
h  - hammer on           b  - Bend 
p  - pull off            Suffixes for bend 
t  - tap                 f  - full bend    h - half bend 
ph - pinched harmonic    q  - quarter bend t - tap bend 
nh - natural harmonic    ^  - Hold bend    r release bend 
*  - see comment         ~  - vibrato bend 
x  - Stuccatto           () - ghost note, sustained note 
,  - slight palm mute    <> - Trill 
"  - tremolo note 

Tuning: "D"G"C"F"A"D" 


Riff 1 
|-------------------------------------------------------------| 
|-------------------------------------------------------------| 
|-------------------------------------------------------------| 
|--8----------------------------8/7---------------------------| 
|--6----5----4----5----4\5------6/5--5----4----5----4\5-------| 
|--6----3--0-2--0-3--0-2\3--0-0-6/5--3--0-2--0-3--0-2\3--0-0--| 
           .    .    .      . .         .    .    .      . . 

Fill 1
|----------|
|----------|
|----------|
|--2x------|
|--2x------|
|--0x------|


Riff 2 
|-------------------------------------------------------------| 
|-------------------------------------------------------------| 
|-------------------------------------------------------------| 
|----------------------------3-----------------------------5--| 
|--2------3/2---4/3---3/2----1---2------3/2---4/3---3/2----3--| 
|--0--0-0-1/0-0-2/1-0-1/0-0------0--0-0-1/0-0-2/1-0-1/0-0-----| 
      . .     .     .     .         . .     .     .     . 

Riff 3 
|---------------------------------------------| 
|---------------------------------------------| 
|---------------------------------------------| 
|-----------3-----------5-----------3---------| 
|--2--------1--2--------3--2--------1--2------| 
|--0-----------0-----------0-----------0------| 


Riff 4 
|-----------------------------------------------------| 
|-----------------------------------------------------| 
|-----------------------------------------------------| 
|--5\6-----------------------3\4/3--------------------| 
|--3\4----------3\4----------1\2/1--5-6-3-4-----------| 
|-------0-0-0-0-1\2--0-0-0-0--------3-4-1-2--0-0-0-0--| 
        . . . .      . . . .                 . . . . 


Solo (E Natural Minor)
|------------------------------------------------------------- 
|----------------------------------------17-15---------------- 
|------------------bh--------------------------17-16-14h16p14-
|--14~-14~--14h16--16^--------16-16~~-------------------------
|------------------------------------------------------------- 
|------------------------------------------------------------- 


-------------------------------------------------------------- 
-------------------------------------------------------------- 
-16-14----14-----------------------------------------------14-
-------17-----17-16-17-16--14-16-14-----14~~~~~/--14-16-17----
------------------------------------17------------------------
-------------------------------------------------------------- 


-------------------------------------------------------------- 
---------------------15-17--15-----------15------------------- 
-----14-16-17--16-17-----------17-16-17-----17-16-14--16~~~~--
--17----------------------------------------------------------
-------------------------------------------------------------- 
-------------------------------------------------------------- 


-----------------------------------14h15p14------------------- 
--15-15<17>--15-15<17>--15-15<17>-----------17"15"------------ 
--------------------------------------------------17"16"14"--- 
-----------------------------------------------------------17"
-------------------------------------------------------------- 
-------------------------------------------------------------- 


-----------------------------------------------------nh-------
-----------------------------------nh----------------10-w/bar-
---ph----------------------------7-10-w/bar-flutter----------- 
16"14~~~~/---------7-----7-9-10------------------------------- 
---bf-------7-9-10----10-------------------------------------- 
-------------------------------------------------------------- 
            . .  . .   . . .  .  . 

--------------------------------------------------------------| 
-flutter-------------------nh---------------------------------| 
----------nh----------------6-wbar-flutter--nh----------------| 
----------10-w/bar-flutter-------------------6-w/bar-flutter--| 
--------------------------------------------------------------| 
--------------------------------------------------------------| 


Riff 5-A
|---------------------------------------------------| 
|---------------------------------------------------| 
|---------------------------------------------------| 
|------3---4----------------------------------------| 
|--2---1---2---3------------------------------------| 
|--0-----------1---0-0-0-0-1-1-1-1-1-1-1-1-3-3-3-3--| 
                   . . . . . . . . . . . . . . . . 

Riff 5-B
|--------------------------------------------------------| 
|--------------------------------------------------------| 
|--------------------------------------------------------| 
|------3---4---------------------------------------------| 
|--2---1---2---3-----------------------------------------| 
|--0-----------1---000000000000111111111111333333333333--| 
                   ........................

Riff 5-C
|---------------------------------------------------| 
|---------------------------------------------------| 
|---------------------------------------------------| 
|------3---4-------2-2-2-2-3-3-3-3-3-3-3-3-5-5-5-5--| 
|--2---1---2---3---2-2-2-2-3-3-3-3-3-3-3-3-5-5-5-5--| 
|--0-----------1---0-0-0-0-1-1-1-1-1-1-1-1-3-3-3-3--| 


Riff 5-D (End of Riff 5)
|---------------------------------------------------| 
|---------------------------------------------------| 
|---------------------------------------------------| 
|------3---4-------2-2-2-2-3-3-3-3-3-3-3-3--555--5--| 
|--2---1---2---3---2-2-2-2-3-3-3-3-3-3-3-3--555--5--| 
|--0-----------1---0-0-0-0-1-1-1-1-1-1-1-1--333--3--| 


Check out my other tabs by: Deicide, Obituary, Hypocrisy, 
Grave, Catastrophic, Six Feet Under, Incantation, Death and 
Cannibal Corpse.





Comments


Popular Obituary tabs & chords
Threatening Skies Bass Tabs
Don't Care 1 Tabs
Final Thoughts 1 Tabs
Godly Beings 1 Tabs
I'm In Pain 1 Tabs
In The End Of Life Tabs
Insane 1 Tabs
Memories Remain Tabs
Pressure Point Tabs
Solid State Tabs


Song lyrics



↑ Back to top | Tablatures and chords are parodies/interpretations of the original songs. You may use it for private study, scholarship, research or language learning purposes only
© 2014 AZChords.com Contact us | Privacy policy | DMCA | Add/correct tabs | Request tabs | Top 50 tabs