>
 >
Paralyzing

Paralyzing Guitar Tabs

Obituary - Paralyzing chords, tabs, tablatures, lyrics

Guitar lessons | Add/correct | Request | Top 50 tabs Artists:  A B C D E F G H I J K L M N O P Q R S T U V W X Y Z 0-9

Paralyzing Guitar Tabs – Obituary

CD, Sheet music, Poster

Do you like Paralyzing? Share with your friends now
Tabs
OBITUARY - PARALYZING
                            From the Album - WORLD DEMISE
                         Copyright - ROADRUNNER RECORDS 1994
                              Version 1.0 - Oct 31, 2002



For Questions, Comments, Newest Version, or Corrections contact


.  - palm mute           /  - slide up to
\  - slide down to       ~  - vibrato
h  - hammer on           b  - Bend
p  - pull off            Suffixes for bend
t  - tap                 f  - full bend    h - half bend
ph - pinched harmonic    q  - quarter bend t - tap bend
nh - natural harmonic    ^  - Hold bend    r release bend
*  - see comment         ~  - vibrato bend
x  - Stuccatto           () - ghost note, sustained note
,  - slight palm mute    <> - Trill
"  - tremolo note

Tuning: "D"G"C"F"A"D"


Riff 1-A
|------------------------------------------------------------------|
|------------------------------------------------------------------|
|------------------------------------------------------------------|
|----------------3-4-----------3-2-----------4--------------4-3----|
|--2-----------3-1-2-----------1-0-5-------3-2----3---3---3-2-1-3--|
|--0---0-0-0-0-1-------0-0-0-0-----3---0-0-1----0-1-0-1-0-1-----1--|
       . . . .         . . . .         . .      .   .   .

Riff 1-B
|------------------------------------------------------------------|
|------------------------------------------------------------------|
|------------------------------------------------------------------|
|----------------3-4-----------3-2-------------------5------5------|
|--2-----------3-1-2-----------1-0-5-------3-------3-3----3-3-5-3--|
|--0--00000000-1------00000000-----3---0-0-1---0-0-1----0-1---3-1--|
      ........        ........         . .     . .      .

Riff 2-A
|-------------------------------------------------------|
|-------------------------------------------------------|
|-------------------------------------------------------|
|------------------------------------5-4----------------|
|--2------4----------2-3-4--2-4-5--2-3-2--2-4-5--2-3-4--|
|--0------2----------0-1-2--0-2-3--0------0-2-3--0-1-2--|


Riff 2-B
|-------------------------------------|
|-------------------------------------|
|-------------------------------------|
|------------------5-4----------------|
|----3-4----4-5----3-2----4-5----3-4--|
|--0-1-2--0-2-3--0------0-2-3--0-1-2--|
   .      .      .      .      .

Riff 2-C
|----------------------------------------------|
|----------------------------------------------|
|----------------------------------------------|
|------------------5-4-------------------------|
|----3-4----4-5----3-2----5\6/5--4\5/4--3\4/3--|
|--0-1-2--0-2-3--0------0-3\4/3--2\3/2--1\2/1--|
   .      .      .      .

Riff 2-D
|----------------------------------------------|
|----------------------------------------------|
|----------------------------------------------|
|------------------5-4-------------------------|
|----3-4----4-5----3-2----5\6/5---------3x-----|
|--0-1-2--0-2-3--0------0-3\4/3--000000-1x-----|
   .      .      .      .        ......

Riff 1-C
|------------------------------------------------------------------|
|------------------------------------------------------------------|
|------------------------------------------------------------------|
|----------------3-4-----------3-2-------------------5------5------|
|--2-----------3-1-2-----------1-0-5-------3-------3-3----3-3-5-3--|
|--0--00000000-1------00000000-----3---0-0-1---0-0-1----0-1---3-1--|
|     ........        ........         . .     . .      .          |
|                                                                  |
|------------------------------------------------------------------|
|------------------------------------------------------------------|
|------------------------------------------------------------------|
|----------------3-4-----------3-2-----------4--------------4-3----|
|--2-----------3-1-2-----------1-0-5-------3-2----3---3---3-2-1-3--|
|--0--00000000-1------00000000-----3---0-0-1----0-1-0-1-0-1-----1--|
      ........        ........         . .      .   .   .

Fill 1
|--------|
|--------|
|--------|
|--------|
|--2x----|
|--0x----|


Riff 3-A
|----------------------------|
|----------------------------|
|----------------------------|
|--------6-------------------|
|--2--5--4----5----3---------|
|--0--3-------3----1---------|


Riff 3-B
|----------------------------|
|----------------------------|
|----------------------------|
|--------6-------------------|
|--2--5--4----5----3----4----|
|--0--3-------3----1----2----|


Riff 4
|-----------------------------------------------------------|
|-----------------------------------------------------------|
|-----------------------------------------------------------|
|---------7-7-----------------------------------------------|
|--2------5-5------3-3------3-3-----------------------------|
|--0--0-0------0-0-1-1--0-0-1-1--4-3-3-3--3-2-2-2--2-1-1-1--|
      . .      . .      . .      . . . .  . . . .  . . . .

Riff 5-A
|----------------------------------------------------|
|----------------------------------------------------|
|----------------------------------------------------|
|----------------------------------------------------|
|---------------3----------333333333333-4------------|
|--444444444444-1-----------------------2------------|


Riff 5-B
|----------------------------------------------------|
|----------------------------------------------------|
|----------------------------------------------------|
|----------------------------------------------------|
|--------------------------333333333333--------------|
|--444444444444111111111111------------222222222222--|


Fill 2
|--------|
|--------|
|--------|
|--------|
|--6x----|
|--4x----|


Check out my other tabs by: Deicide, Obituary, Hypocrisy,
Grave, Catastrophic, Six Feet Under, Incantation, Death and
Cannibal Corpse.





Comments


Popular Obituary tabs & chords
Threatening Skies Bass Tabs
Body Bag (Solo) Tabs
Buried Alive Tabs
Insane 1 Tabs
Internal Bleeding Tabs
Memories Remain 1 Tabs
Platonic Disease Tabs
Pressure Point Tabs
Rewind Tabs
Threatening Skies Tabs


Song lyrics



↑ Back to top | Tablatures and chords are parodies/interpretations of the original songs. You may use it for private study, scholarship, research or language learning purposes only
© 2014 AZChords.com Contact us | Privacy policy | DMCA | Add/correct tabs | Request tabs | Top 50 tabs