» » »

Lost Tabs (ver.1)

Artists:  A B C D E F G H I J K L M N O P Q R S T U V W X Y Z # 

Lost Tabs (ver.1)

Obituary
Rating:
0/5 (0 votes)

Hard to play? Try these video lessons and learn fast.
                OBITUARY - LOST
                            From the Album - WORLD DEMISE
                         Copyright - ROADRUNNER RECORDS 1994
                              Version 1.0 - Oct 30, 2002



For Questions, Comments, Newest Version, or Corrections contact


.  - palm mute           /  - slide up to
\  - slide down to       ~  - vibrato
h  - hammer on           b  - Bend
p  - pull off            Suffixes for bend
t  - tap                 f  - full bend    h - half bend
ph - pinched harmonic    q  - quarter bend t - tap bend
nh - natural harmonic    ^  - Hold bend    r release bend
*  - see comment         ~  - vibrato bend
x  - Stuccatto           () - ghost note, sustained note
,  - slight palm mute    <> - Trill
"  - tremolo note

Tuning: "D"G"C"F"A"D"


Riff 1-A
|---------------------------------|
|---------------------------------|
|---------------------------------|
|---------------------------------|
|--5-----3-----------7\8-7--2-----|
|--3-----1-----------5\6-5--0-----|


Riff 1-B
|---------------------------------|
|---------------------------------|
|---------------------------------|
|---------------------------------|
|--5-----3-----------7\8-7--------|
|--3--00-1--00000000-5\6-5--0000--|
      ..    ........        ....

Riff 2-A
|---------------------------------------|
|---------------------------------------|
|---------------------------------------|
|--5------------------------------------|
|--3-3----3------3--------7/5------3\5--|
|----1--0-1--0-0-1--0-0-0-5/3--0-0-1\3--|
        .    . .    . . .      . .

Riff 2-B
|-------------------------------------------|
|-------------------------------------------|
|-------------------------------------------|
|--5----------------------------------------|
|--3-3-----3-------3---------7/5-------3\5--|
|----1--00-1--0000-1--000000-5/3--0000-1\3--|
        ..    ....    ......      ....

Fill 1
|-----------------|
|-----------------|
|-----------------|
|--5--------------|
|--3-3----3x--3x--|
|----1--0-1x--1x--|
        .

Riff 2-C
|---------------------------------------|
|---------------------------------------|
|---------------------------------------|
|--5------------------------------------|
|--3-3----3--------3------7/5------3\5--|
|----1--0-1--0-0-0-1--0-0-5/3--0-0-1\3--|
        .    . . .    . .      . .

Riff 3
|------------------------------------------------------|
|------------------------------------------------------|
|------------------------------------------------------|
|--7------------3------------4------------4----3----4--|
|--7------------3------------4------------4----3----4--|
|--5----0-0-0-0-1----0-0-0-0-2----0-0-0-0-2--0-1--0-2--|
        . . . .      . . . .      . . . .    .    .

Riff 4
|------------------------------------|
|------------------------------------|
|------------------------------------|
|--5--5--5-5--------4--4--4-4--------|
|--5--5--5-3--------4--4--4-2--------|
|--3--3--3-3--------2--2--2-2--------|


Check out my other tabs by: Deicide, Obituary, Hypocrisy,
Grave, Catastrophic, Six Feet Under, Incantation, Death and
Cannibal Corpse.
            
Hard to play? Try these video lessons and learn fast. | Correct




comments powered by Disqus
↑ Back to top | Tablatures and chords are parodies/interpretations of the original songs. You may use it for private study, scholarship, research or language learning purposes only