>
 >
Killing Victims Found

Killing Victims Found Guitar Tabs

Obituary - Killing Victims Found chords, tabs, tablatures, lyrics

Guitar lessons | Add/correct | Request | Top 50 tabs Artists:  A B C D E F G H I J K L M N O P Q R S T U V W X Y Z 0-9

Killing Victims Found Guitar Tabs – Obituary

CD, Sheet music, Poster

Do you like Killing Victims Found? Share with your friends now
Tabs
OBITUARY - KILLING VICTIMS FOUND
                             From the Album - DON'T CARE
                         Copyright - ROADRUNNER RECORDS 1994
                              Version 1.0 - Oct 28, 2002



For Questions, Comments, Newest Version, or Corrections contact


.  - palm mute           /  - slide up to
\  - slide down to       ~  - vibrato
h  - hammer on           b  - Bend
p  - pull off            Suffixes for bend
t  - tap                 f  - full bend    h - half bend
ph - pinched harmonic    q  - quarter bend t - tap bend
nh - natural harmonic    ^  - Hold bend    r release bend
*  - see comment         ~  - vibrato bend
x  - Stuccatto           () - ghost note, sustained note
,  - slight palm mute    <> - Trill
"  - tremolo note

Tuning: "D"G"C"F"A"D"


Riff 1
|-----------------------------|
|-----------------------------|
|-----------------------------|
|-----------------------------|
|--bf------------3----3----3--|
|--3^----0-0-0-0-1--0-1--0-1--|
         . . . .    .    .

Riff 2                                              Gtr I
|---------------------------------------------------------|
|---------------------------------------------------------|
|---------------------------------------------------------|
|--7----7---------------------7----7----6-----------------|
|--7----5---------------------7----5----4-----------------|
|--5----5---------------------5----5----4-----------------|

                                                    Gtr II
|---------------------------------------------------------|
|---------------------------------------------------------|
|---------------------------------------------------------|
|--7----7---------------------7----7----6-----------------|
|--7----5---------------------7----5----4-----------------|
|--5----5----0-0-0-0-0-0-0-0--5----5----4----0-0-0-0-0-0--|
             . . . . . . . .                 . . . . . .

Riff 3-A
|---------------------------------------------------|
|---------------------------------------------------|
|---------------------------------------------------|
|---------------4-----------------------------------|
|--2------------2---3---4---2------------3---4---3--|
|--0----0-0-0-0-----1---2---0----0-0-0-0-1---2---1--|
        . . . .                  . . . .

Riff 3-B
|---------------------------------------------------|
|---------------------------------------------------|
|---------------------------------------------------|
|---------------4-----------------------------------|
|--2------------2---3---4---2------------3---4---3--|
|--0----0-0-0-0---0-1-0-2---0----0-0-0-0-1-0-2-0-1--|
        . . . .   .   .          . . . .   .   .

Riff 4
|--------------------------------------------------------|
|--------------------------------------------------------|
|--------------------------------------------------------|
|------------------------------------------7\8/7--5\6/5--|
|--5---------------3-3-4-3-5---------------5\6/5--3\4/3--|
|--3--000000000000-1-1-2-1-3--000000000000---------------|


Riff 5
|-----------------------------------------|
|-----------------------------------------|
|-----------------------------------------|
|-----------------------------------------|
|--5------------------5-------------------|
|--3-3333333311115555-3-3333333311556666--|


Fill 1
|-----------------------------------|
|-----------------------------------|
|-----------------------------------|
|-----------------------------------|
|--222-222-222-222-222-222-222-222--|
|--000-000-000-000-000-000-000-000--|
   ... ... ... ... ... ... ... ...

Riff 6-A
|-------------------------------------------------------------------|
|-------------------------------------------------------------------|
|-------------------------------------------------------------------|
|----------4--------------4---4----------4--------------6----7---6--|
|----------2--------------2---2----------2--------------4----5---4--|
|--0-0-0-0----0-0-0-0-0-0---0----0-0-0-0----0-0-0-0-0-0-4----5---4--|
   . . . .    . . . . . .   .    . . . .    . . . . . .

Riff 6-B
|-------------------------------------------------------------------|
|-------------------------------------------------------------------|
|-------------------------------------------------------------------|
|----------4--------------4---4----------4--------------6----7---6--|
|----------2--------------2---2----------2--------------4----5---4--|
|--0-0-0-0-2--------0-0-0---0----0-0-0-0-2--------0-0-0-4----5---4--|
   . . . .          . . .   .    . . . .          . . .

Fill 2
|--------|
|--------|
|--------|
|--------|
|--2x----|
|--0x----|


Riff 7-A
|-----------------------------------|
|-----------------------------------|
|-----------------------------------|
|-----------------------------------|
|--7------5------2---3---4---3---2--|
|--5------3------0---1---2---1---0--|


Riff 7-B                      Gtr I
|-----------------------------------|
|-----------------------------------|
|-----------------------------------|
|-----------------------------------|
|----------------2---3---4---3---2--|
|--5~-----3~-----0---1---2---1---0--|

                              Gtr II
|-----------------------------------|
|-----------------------------------|
|-----------------------------------|
|--7~-----5~------------------------|
|----------------2---3---4---3---2--|
|----------------0---1---2---1---0--|


End
|-----------------------------------|
|-----------------------------------|
|-----------------------------------|
|-----------------------------------|
|--7------5-------------------------|
|--5------3-------------------------|


Check out my other tabs by: Deicide, Obituary, Hypocrisy,
Grave, Catastrophic, Six Feet Under, Incantation, Death and
Cannibal Corpse





Comments


Popular Obituary tabs & chords
Buried Alive 1 Tabs
By The Light Tabs
Find The Arise Tabs
Godly Beings 1 Tabs
I'm In Pain Tabs
Immortal Visions 1 Tabs
In The End Of Life Tabs
Infected Tabs
Lockdown Tabs
Solid State Tabs


Song lyrics



↑ Back to top | Tablatures and chords are parodies/interpretations of the original songs. You may use it for private study, scholarship, research or language learning purposes only
© 2014 AZChords.com Contact us | Privacy policy | DMCA | Add/correct tabs | Request tabs | Top 50 tabs