>
 >
Killing Time

Killing Time Guitar Tabs

Obituary - Killing Time chords, tabs, tablatures, lyrics

Guitar lessons | Add/correct | Request | Top 50 tabs Artists:  A B C D E F G H I J K L M N O P Q R S T U V W X Y Z 0-9

Killing Time Guitar Tabs – Obituary

CD, Sheet music, Poster

Do you like Killing Time? Share with your friends now
Tabs
                                OBITUARY - KILLING TIME
                          From the Album - THE END COMPLETE
                         Copyright - ROADRUNNER RECORDS 1992
                                Version 1.1 Oct 2, 2002 

Corrected By: James Williams (INVERTED)

For Questions, Comments, Newest Version, or Corrections, contact


.  - palm mute           /  - slide up to
\  - slide down to       ~  - vibrato
h  - hammer on           b  - bend
p  - pull off            Suffixes for bend ^
ph - pinched harmonic     f - full bend    h - half bend
*  - see comment          r - release      t - tap bend
X  - Stuccatto            ~ - vibrato bend q - quarter bend
,  - slight palm mute    () - ghost note, sustained note
"  - Tromolo note        <> - Trill

Tuning: "D"G"C"F"A"D


Riff 1-A
|------------------------------------------------------------|
|------------------------------------------------------------|
|------------------------------------------------------------|
|-----------3-------------4-------------5------------5-------|
|--2--------1----3--------2----4--------3----5-------3-5--3--|
|--0--0-0-0------1--0-0-0------2--0-0-0------3--0-0----3--1--|
      . . .         . . .         . . .         . .
     
Riff 1-B
|------------------------------------------------------------|
|------------------------------------------------------------|
|------------------------------------------------------------|
|-----------3-------------4-------------5-----------5-4------|
|--2--------1----3--------2----4--------3----5------3-2-5-3--|
|--0--0-0-0------1--0-0-0------2--0-0-0------3--0-0-----3-1--|
      . . .         . . .         . . .         . .

Riff 2
|--------------------------------------------------------------------------|
|--------------------------------------------------------------------------|
|--------------------------------------------------------------------------|
|--------------------------------------------------------5\6-6-6--3\4-4-4--|
|--7\8-8-8--8/7-7-7--2\3-3-3--3/2-2-2--7\8-8-8--8/7-7-7--3\4-4-4--1\2-2-2--|
|--5\6-6-6--6/5-5-5--0\1-1-1--1/0-0-0--5\6-6-6--6/5-5-5--------------------|


Riff 3-A
|---------------------------------|
|---------------------------------|
|---------------------------------|
|--2------------------------------|
|--2----------------11113333------|
|--0------------------------1111--|
                    ............

Riff 3-B
|---------------------------------|
|---------------------------------|
|---------------------------------|
|--2------2----2------------------|
|--2------2----2----11113333------|
|--0--0-0-0--0-0------------1111--|
      . .    .      ............

Riff 4
|-----------------------------------------|
|-----------------------------------------|
|-----------------------------------------|
|------------------------------------5----|
|--4-----------5--2--4---------5--4--3----|
|--2--22222222-3--0--2--222222-3--2--3----|


Riff 5
|-----------------------------------|
|-----------------------------------|
|-----------------------------------|
|-----------------------------------|
|-----------------------------------|
|--0000666622223333000444433331111--|


End
|----------------------------------------------------------------|
|----------------------------------------------------------------|
|----------------------------------------------------------------|
|-----------3-------------4-------------5------------5-----------|
|--2--------1----3--------2----4--------3----5-------3-5--3--2x--|
|--0--0-0-0------1--0-0-0------2--0-0-0------3--0-0----3--1--0x--|
      . . .         . . .         . . .         . .
     
Check out my other tabs by: Deicide, Obituary, Hypocrisy, 
Grave, Catastrophic, Six Feet Under, Incantation, Death and 
Cannibal Corpse.





Comments


Popular Obituary tabs & chords
Back To One Tabs
Body Bag (Solo) Tabs
Burned In Tabs
Contrast The Dead Tabs
Final Thoughts 1 Tabs
Immortal Visions 1 Tabs
Kill For Me Tabs
Killing Victims Found Tabs
Rewind Tabs
Sickness Tabs


Song lyrics



↑ Back to top | Tablatures and chords are parodies/interpretations of the original songs. You may use it for private study, scholarship, research or language learning purposes only
© 2014 AZChords.com Contact us | Privacy policy | DMCA | Add/correct tabs | Request tabs | Top 50 tabs