» » »

In The End Of Life Tabs (ver.1)

Artists:  A B C D E F G H I J K L M N O P Q R S T U V W X Y Z # 

In The End Of Life Tabs (ver.1)

Obituary
Rating:
0/5 (0 votes)

Hard to play? Try these video lessons and learn fast.
                                            OBITUARY - IN THE END OF LIFE
                          From the Album - THE END COMPLETE
                         Copyright - ROADRUNNER RECORDS 1992
                              Version 1.1 Sept 24, 2002 

Corrections/Additions By: James Williams (INVERTED)

For Questions, Comments, Newest Version, or Corrections, contact


.  - palm mute           /  - slide up to
\  - slide down to       ~  - vibrato
h  - hammer on           b  - bend
p  - pull off            Suffixes for bend ^
ph - pinched harmonic     f - full bend    h - half bend
*  - see comment          r - release      t - tap bend
X  - Stuccatto            ~ - vibrato bend q - quarter bend
,  - slight palm mute    () - ghost note, sustained note
"  - Tromolo note        <> - Trill

Tuning: "D"G"C"F"A"D


Riff 1
|----------------------------------------------|
|----------------------------------------------|
|----------------------------------------------|
|--3-----------------------------3-------------|
|--1--------------6--------------1--5---6--3---|
|---------0-0-0-0-4------0-0-0-0----3---4--1---|
          . . . .        . . . .

Riff 2
|------------------------------|
|------------------------------|
|------------------------------|
|--6----5--------2----7--------|
|--6----3--------2----7--------|
|--4----3--------0----5--------|


Riff 3-A
|------------------------------------|
|------------------------------------|
|------------------------------------|
|------------------------------------|
|--44443333--------3333----22222222--|
|----------22222222----1111----------|
   ................................


Riff 3-B
|------------------------------------|
|------------------------------------|
|------------------------------------|
|---------------------------4x-------|
|--44443333--------3333-----2x-------|
|----------22222222----1111----------|
   ........................        

Riff 4

|------------------------------------------------|
|------------------------------------------------|
|------------------------------------------------|
|------------------------------------------------|
|--555555------------------555555----------------|
|--------555555666666333333------66666633333333--|


Fill 1
|---------------------|
|---------------------|
|---------------------|
|--7x--------7--------|
|--5x--------5--------|
|--5x--------5--------|


Riff 5
|---------------------------------|
|---------------------------------|
|---------------------------------|
|--5----3--4------5----7--6---8---|
|--5----3--4------5----7--6---8---|
|--3----1--2------3----5--4---6---|


Riff 6
|--------------------------------------|
|--------------------------------------|
|--------------------------------------|
|----6-7------------6---5--------------|
|--6-4-5-8--------6-4-5-3-5----4-------|
|--4-----6--0-0-0-4---3---3--0-2--0-0--|
            . . .            .    . .

Lyrics corrected by: INVERTED

No will, no will to live, to live 
Without light...blinded 
You're coming to the end, to the end...of life 

Arriving in the end of life 
Ones decide to sacrifice 

No will, no will to live, to live 
Without, without light, the end... 
You're coming, you're coming to the end of life 

Lost in darkness, realms soon come 
The fearless ones now are down 
The final bodies, burned alive... 


Check out my other tabs by: Deicide, Obituary, Hypocrisy, 
Grave, Catastrophic, Six Feet Under, Incantation, Death and 
Cannibal Corpse.
            
Hard to play? Try these video lessons and learn fast. | Correct




comments powered by Disqus
↑ Back to top | Tablatures and chords are parodies/interpretations of the original songs. You may use it for private study, scholarship, research or language learning purposes only