>
 >
Find The Arise

Find The Arise Guitar Tabs

Obituary - Find The Arise chords, tabs, tablatures, lyrics

Guitar lessons | Add/correct | Request | Top 50 tabs Artists:  A B C D E F G H I J K L M N O P Q R S T U V W X Y Z 0-9

Find The Arise Guitar Tabs – Obituary

CD, Sheet music, Poster

Do you like Find The Arise? Share with your friends now
Tabs


/ The following is the author's own interpretation of the song, to be used -
/ for studying or private use only, removal of any part of this ten line   -
/ place inwhich the tab was downloaded. Publishing as well as printing of  -
/ owner of the song. Failure to apply to these laws result will in legal   -
/ action from the appropriate parties.                                     -

                         OBITUARY - FIND THE ARISE
                         From the Album CAUSE OF DEATH (1990)
                         Copyright  RoadRUNNER Records
                             
                                 written by:
                                      

                                12 may 2001

NOTE: tune down your guitar a whole brutal step! (D,G,C,F,A,D)
      listen to the song to take the time


Riff 1

|------------------------------------|
|------------------------------------|
|------------------------------------|
|------------------------------------|
|--4----5--4--2------------5--4--2---|
|--2----3--2--0--22222222--3--2--0---|


Riff 2

|----------------------------|
|----------------------------|
|----------------------------|
|----------------------------|
|----------------------------|
|--22222222-3333-2222-0000---|


RIff 3

|-------------------------------------------|
|-------------------------------------------|
|-------------------------------------------|
|--------------------2-3--------------------|
|--2---------3\4-3---0-1---2--------3\4-3---|
|--0--0-0-0--1\2-1---------0-0-0-0--1\2-1---|


RIff 4

|----------------------------|
|----------------------------|
|----------------------------|
|----------------------------|
|----------------------------|
|--44444444-3333-4444-5555---|


|----------|
|----------|
|----------|
|----------|<-------end of riff 4
|--2-------|
|--0-------|


RIff 5

|------------------------------------|
|------------------------------------|
|------------------------------------|
|-------3--4-------------------------|
|--2----1--2--3--4----3--4----3--2---|
|--0----------1--2----1--2----1--0---|


Riff 6

|----------------------|
|----------------------|
|----------------------|
|----------------3-4---|
|------------4-3-1-2---|
|--00000000--2-1-------|


|-----|
|-----|
|-----|
|-----|
|--4--|<----Riff 1 + end.
|--2--|


End!

listen to the song for the structure...

LYRIC:
______________________________

Go - To Find the Arise
Kill after sight

Fight - live through the hell
war is a price
twisting their minds
kill after sight

______________________________


that's all guys....obituary rules this motherfucking world....





Comments


Popular Obituary tabs & chords
‘Til Death 1 Tabs
Back From The Dead Tabs
Boiling Point Tabs
Cause Of Death 1 Tabs
Dying Tabs
Insane 1 Tabs
Internal Bleeding Tabs
Platonic Disease Tabs
Turned Inside Out Tabs
World Demise 1 Tabs


Song lyrics



↑ Back to top | Tablatures and chords are parodies/interpretations of the original songs. You may use it for private study, scholarship, research or language learning purposes only
© 2014 AZChords.com Contact us | Privacy policy | DMCA | Add/correct tabs | Request tabs | Top 50 tabs