>
 >
Feed On The Weak

Feed On The Weak Guitar Tabs

Obituary - Feed On The Weak chords, tabs, tablatures, lyrics

Guitar lessons | Add/correct | Request | Top 50 tabs Artists:  A B C D E F G H I J K L M N O P Q R S T U V W X Y Z 0-9

Feed On The Weak Guitar Tabs – Obituary

CD, Sheet music, Poster

Do you like Feed On The Weak? Share with your friends now
Tabs
OBITUARY - FEED ON THE WEAK
                        From the Album - BACK FROM THE DEAD
                        Copyright - ROADRUNNER RECORDS 1997
                             Version 1.1 - MAY 1, 2002

Corrected By: James Williams (Inverted)

For Questions, Comments, Newest Version, or Corrections contact


.  - palm mute           /  - slide up to
\  - slide down to       ~  - vibrato
h  - hammer on           b  - Bend
p  - pull off            Suffixes for bend
t  - tap                 f  - full bend    h - half bend
ph - pinched harmonic    q  - quarter bend t - tap bend
*  - see comment         ^  - Hold bend    r release bend
x  - Stuccatto           ~  - vibrato bend
,  - slight palm mute    () - ghost note, sustained note
"  - tremolo note        <> - Trill

Tuning: "D"G"C"F"A"D"


Riff 1
|-------------------------------------------------------|
|-------------------------------------------------------|
|-------------------------------------------------------|
|-----------------5-------------------------------------|
|--2--------------3--------5----2--------------3--------|
|--0--------0--0-----------3----0--------0--0--1--------|
            .  .                         .  .

Riff 2              x3                   x1
|---------------------|--------------------|
|---------------------|--------------------|
|---------------------|--------------------|
|---------------------|------6--------3----|
|---------------------|------4--------1----|
|--0-0-0-0-3210-4321--|--0-0-4----0-0-1----|
   . . . . .... ....     . .      . .

Riff 3
|---------------------------------------|
|---------------------------------------|
|---------------------------------------|
|-----------5\6------3\4------7\8-------|
|-----------3\4------1\2------5\6-------|
|--0-0-0000------0-0------0-0------0-0--|
|  . . ....      . .      . .      . .  |
|                                       |
|---------------------------------------|
|---------------------------------------|
|---------------------------------------|
|-----------5\6------3\4------7--7------|
|-----------3\4------1\2------5--5------|
|--0-0-0000------0-0------0-0-5--5------|
   . . ....      . .      . .

Riff 4
|------------------------------------------------------------|
|------------------------------------------------------------|
|------------------------------------------------------------|
|----------------3-----------------------------------6-------|
|-2--------------1------3------2--------------5------4-------|
|-0----0-0-0-0-0----0-0-1--0-0-0----0-0-0-0-0-3--0-0----0-0--|
       . . . . .    . .    . .      . . . . .    . .    . .

End
|----------------------|
|----------------------|
|----------------------|
|------6-------3--2-2x-|
|------4-------1--2-2x-|
|-0-0--4--0-0--1--0-0x-|
  . .     . .

Check out my other tabs by: Deicide, Obituary, Hypocrisy,
Grave, Catastrophic, Six Feet Under, Incantation, Death and
Cannibal Corpse.





Comments


Popular Obituary tabs & chords
Back From The Dead Tabs
Body Bag (Solo) Tabs
Dead Silence Tabs
Immortal Visions Tabs
Insane 1 Tabs
Redefine Tabs
Rotting Ways Tabs
Slowly We Rot Tabs
Splattered Tabs
Words Of Evil Tabs


Song lyrics



↑ Back to top | Tablatures and chords are parodies/interpretations of the original songs. You may use it for private study, scholarship, research or language learning purposes only
© 2014 AZChords.com Contact us | Privacy policy | DMCA | Add/correct tabs | Request tabs | Top 50 tabs