» » »

Obituary, Contrast The Dead Tabs (ver.1)

Artists:  A B C D E F G H I J K L M N O P Q R S T U V W X Y Z # 

Contrast The Dead Tabs (ver.1)

Obituary Tabs
Rating:
0/5 (0 votes)
Contrast The Dead lessons Tabs too difficult? Try these video lessons and learn fast
                Band:  Obituary



Version 1.0


.  - palm mute           /  - slide up to
\  - slide down to       ~  - vibrato
h  - hammer on           b  - Bend
p  - pull off            Suffixes for bend
t  - tap                 f  - full bend    h - half bend
ph - pinched harmonic    q  - quarter bend t - tap bend
*  - see comment         ^  - Hold bend    r release bend
x  - Stuccatto           ~  - vibrato bend
,  - slight palm mute    () - ghost note, sustained note
"  - tremolo note        <> - Trill

Tuning: D G C F A D



Riff 1
|------------------------------------------------------------------|
|------------------------------------------------------------------|
|------------------------------------------------------------------|
|-2----5------------------2----5---------4-------------------------|
|-2----3----6----3--------2----3----5----2-------------------------|
|-0----3----4----1--------0----3----3----2-------------------------|



Riff 2
|-----------------------------------------------------------------|
|-----------------------------------------------------------------|
|-----------------------------------------------------------------|
|-2--3--4--------------3--4---------------------------------------|
|-2--1--2--4--2-2-2-2--1--2--4------------------------------------|
|-0--1--2--2--0-0-0-0--1--2--2------------------------------------|
              . . . .


Riff 3
|------------------------------------------------------------------|
|------------------------------------------------------------------|
|------------------------------------------------------------------|
|-5--6--2-----------3----------------------------------------------|
|-3--4--2--2-2-2-2--1--3-------------------------------------------|
|-3--4--0--0-0-0-0--1--1-------------------------------------------|
           . . . .


Riff 4
|------------------------------------------------------------------|
|------------------------------------------------------------------|
|------------------------------------------------------------------|
|-----------5------------------------------------------------------|
|-6----5----3----3-------------------------------------------------|
|-4----3----3----1-------------------------------------------------|



Riff 6
|------------------------------------------------------------------|
|------------------------------------------------------------------|
|------------------------------------------------------------------|
|------------------------------------------------------------------|
|-2-----------5-------------------7-8------------------------------|
|-0--0-0-0-0--3--0-0-0-0--0-0-0-0-5-6------------------------------|



Riff 7
|------------------------------------------------------------------|
|------------------------------------------------------------------|
|------------------------------------------------------------------|
|------------------------------------------------------------------|
|-2-----------5-----------7-----------8-8--------------------------|
|-0--0-0-0-0--3--0-0-0-0--5--0-0-0-0--6-6--------------------------|



Riff 8
|------------------------------------------------------------------|
|------------------------------------------------------------------|
|------------------------------------------------------------------|
|----------------------------5--5--5-------------------------------|
|-5--5--5--5--4--4--4--4--3--3--3--3--3--3--3--3-------------------|
|-3--3--3--3--2--2--2--2--3--3--3--3--1--1--1--1-------------------|



Riff 9
|------------------------------------------------------------------|
|------------------------------------------------------------------|
|------------------------------------------------------------------|
|------------------------------------------------------------------|
|-2----------------------------7-7---------------------------------|
|-0--0-0-0-0--0-0-0-0--0-0-0-0-5-5---------------------------------|
            

comments powered by Disqus
↑ Back to top | Obituary Tabs for Contrast The Dead. Lyrics for acoustic guitar and electric guitar. Tablatures and chords are parodies/interpretations of the original songs. You may use it for private study, scholarship, research or language learning purposes only