» » »

Hey Ya Tabs (ver.2)

Artists:  A B C D E F G H I J K L M N O P Q R S T U V W X Y Z # 

Hey Ya Tabs (ver.2)

Obadiah Parker
Rating:
5/5 (2 votes)
Tabs too difficult? Try these video lessons and learn fast.
                I found that there weren't a lot of versions of this song posted and none of
the ones i looked at were too great... [but the chord progression and capo
info helped me figure this out quickly :)]...this one probably isn't too
great either- but i like playing my version-- it has the piano riffs in the
chorus instead of chords...

C   F   G   Am
0   1   3   0
1   1   3   1
0   2   0   2
2   3   0   2
3       2   x
x       3   x

(you don't need to play low E(1) and A (3) on F, but you can, just complicates it a little...)

standard tuning,
capo 4th.

Intro and Verse:
  -C          -F          -F          -G    -Am         -Am
   v v ^ v ^ v-v v ^ v ^ v-v v ^ v ^ v-v v ^ v v ^ v ^ v v v ^ v ^ v
e]---------------1-1-1-1-1---1-1-1-1-1---3-3-------------------------|
B]---1-1-1-1-1---1-1-1-1-1---1-1-1-1-1---3-3---1-1-1-1-1---1-1-1-1-1-|
G]---0-0-0-0-0---0h2-2-2-2---2-2-2-2-2---0-0---2-2-2-2-2---2-2-2-2-2-|
D]---2-2-2-2-2-3-3-3-3-3-3-3-3-3-3-3-3---0-0-2-2-2-2-2-2-0h2-2-2-2-2-|
A]-3-3-3-3-3-3---------------------------2-2-------------------------|
E]-------------------------------------3-3-3-------------------------|
(repeat three more times)

Chorus:
                          [Piano Riff]
  -C          -F          -F         -G-Am
   v v ^ v ^ v-v v ^ v ^ v-
e]---------------1-1-1-1-1----1---1-0-----------------|
B]---1-1-1-1-1---1-1-1-1-1---2---2----3-1-----------1-|
G]---0-0-0-0-0---0h2-2-2-2--2---2---------2-0-2-0-2---|
D]---2-2-2-2-2-3-3-3-3-3-3-3---3----------------------|
A]-3-3-3-3-3-3----------------------------------------|
E]----------------------------------------------------|
(Strum last Am in Chorus)

When it gets to the "Shake it section: just play the chords in same order- strum
as is appropriate.


Verse One
C             F                       F                       G        Am  Am
My baby don't mess around because she loves me so, and this I know for sho.
But does she
really wanna but can't
stand to see me walk
out the  door?
Don't try to
fight the feelin'cause the
thought alone is killing
me right
now
Thank god for
mom and dad
For sticking
two together
'Cause we
don't know
how.

Verse 2

You think you've got it
Ohh, you think you've got it
But got it just don't get it
Till' there's nothing at all
We get together
Ohh, we get together
But seperate's always better when there's feelings involved
If what they say is "Nothing is forever"
Then what makes, Then what makes, Then what makes
Then what makes, Then what makes love the exception
So why you, why you
Why you, why you, why you are we so in denial
When we know we're not happy here.

Chorus:
C   F  (piano riff)
Hey Ya
Hey Ya
(repeat)
            
Tabs too difficult? Try these video lessons and learn fast.


comments powered by Disqus
↑ Back to top | Tablatures and chords are parodies/interpretations of the original songs. You may use it for private study, scholarship, research or language learning purposes only