» » »

Obadiah Parker, Hey Ya Bass tabs (ver.1)

Artists:  A B C D E F G H I J K L M N O P Q R S T U V W X Y Z # 

Hey Ya Bass tabs (ver.1)

Obadiah Parker Tabs
 Rating:
4/5 (4 votes)
Hey Ya lessons Tabs too difficult? Try these video lessons and learn fast
                ---------------------------------------------------------------------
---------------------------------------------------------------------
Tuning: GDAE


	Verse (Bass comes in at 1.07)
G|-------------------------------------------------------------------|
D|-------------------------------------------------------------------|
A|-----77~----77-------------------77~----77--------------------77~--|
E|-9757---7-55--55-577-99-7-99-9757---7-55--55-4577-99-7-99-9757---7-|

G|-------------------------------------------------------------------|
D|-------------------------------------------------------------------|
A|---77------------------9--77~----77--------------------------------|
E|-55--55-0277-99-7-99-09-7----7-55--55-577-99-7-9~------------------|

	Chorus
G|--------------------------------------------------------------------|
D|--------------------------------------------------------------------|
A|-7~-------------------77~--------------------77~----77--------------|
E|----7-5~-57-9~-7-9~-79---7-5~-57-9~-7-9~-9757---7-55--55-77-99-7-99-|

G|-------------------------------------------------------------------|
D|-------------------------------------------------------------------|
A|-----77~----------7------------------------------------------------|
E|-9757---7-55-44-55-5-77-99-7-99------------------------------------|

	Bridge
G|--------------------------------------------------------------------|
D|--------------------------------------------------------------------|
A|-----77~----77--------------------77~----77--------------------77~--|
E|-9757---7-55--55-0277-99-7-99-9757---7-55—-55-0277-99-7-99-9757---7-|


G|--------------------------------------------------------------------|
D|-------------------------9------------------------------------------|
A|---77-----------------911-91177~----77-----------------77~----77----|
E|-55--55-577-99-7-9h7p9----------7-55--77-577-99-7-99-79---7-55—-55--|

G|----------------------------------------------------------------------|
D|----------------------------------------------------------------------|
A|------------------77~----77-------------------------------------------|
E|--577-99-7-99-5797---7-55--55-577-99-7-99-9757------------------------|

	Breakdown
G|---------------------------------------------------------------------|
D|---------------------------------------------------------------------|
A|-77x---------------------77x---------------------77x-----------------|
E|-----55x-55x-77x-99x-99x-----55x-55x-77x-99x-99x-----55x-55x-77x-9---|9x

G|--------------------------------------------------------------------|
D|--------------------------------------------------------------------|
A|-------77x----------------------------------------------------------|
E|-99x-79----55x-55x-77x-99x-99999757---------------------------------|
	Outro
G|--------------------------------------------------------------------|
D|----------------------------------------------------------9---------|
A|-77~----77-------------------77~----77-----------------911-91177~---|
E|----7-55--55-577-99-7-99-9757---7-55--502577-99-7-9p7h9----------7--|


G|--------------------------------------------------------------------|
D|--------------------------------------------------------------------|
A|---77---------------------77~----77---------------------------------|
E|-55--5050-77-99-7-97505797---7-55--55-577-99-7-99-9757--------------|


Great cover and a class bassline  Goodtimes!
=============================================================================
            
Submit corrections

comments powered by Disqus
↑ Back to top | Obadiah Parker Bass for Hey Ya. Lyrics for acoustic guitar and electric guitar. Tablatures and chords are parodies/interpretations of the original songs. You may use it for private study, scholarship, research or language learning purposes only