>
 >
Roll It Over

Roll It Over Guitar Tabs

Oasis - Roll It Over chords, tabs, tablatures, lyrics

Guitar lessons | Add/correct | Request | Top 50 tabs Artists:  A B C D E F G H I J K L M N O P Q R S T U V W X Y Z 0-9

Roll It Over Guitar Tabs – Oasis

CD, Sheet music, Poster

Do you like Roll It Over? Share with your friends now
Bass TabsChordsDrum TabsTabsTabs v2Tabs v3
OASIS
ROLL IT OVER
-------------------------------------------------------



INTRO:

---------0-------0--0--0--0--(strum these chords)
--0--2-----2-----0--0--0--0--
-------1-----1---6--6--6--6--
-----------------6--6--6--6--
-----------------4--4--4--4--
-----------------------------


VERSE1:(x2)
       =20
guitar1:
        *
--0--0--0--0--
--0--0--0--0--
--6--6--6--6--
--6--6--6--6--
--4--4--4--4--
--------------

guitar2 sarts to play at the * :

--------------------0--------------
---------2---0--2-----2---0--2-----
-----------1------1-----1------1---(x2)
-----------------------------------
-----------------------------------
-----------------------------------


BRIDGE:
           B5  A5  Abm5 F#m5  B5 A5  Abm5 F#m5
---------------------------------------------
---------------------------------------------
--4--4--4~-----------------------------------
------------9---7---6---4-----9---7---6---4--
------------9---7---6---4-----9---7---6---4--
------------7---5---4---2-----7---5---4---2--


CHORUS:
  E      F#m5     A        E
--0--0-------0----0--------0--0----
--0----0-------0--2--3--2--0----0--
--1---------------2--------1-------
--2-------4-------2--------2-------
--2-------4-------0--------2-------
--0 ------2----------------0-------

a 2nd guitar starts to play this:

G/--12~---repeated---

  E      F#m5     A        G                  F#m5
--0--0-------0----0--------*12-------------------------------
--0----0-------0--2--3--2------12--14--14b15--b15r14--12-----
--1---------------2--------------------------------------13~-
--2-------4-------2------------------------------------------
--2-------4-------0------------------------------------------
--0 ------2--------------------------------------------------

a 2nd guitar plays down an octave at the* :

  G            F#m5
---------------------------
--5------------------------
----4--6--6b7--b7r6--4-----
-----------------------6~--
---------------------------
---------------------------


VERSE2:(x2)

guitar1:
        *
--0--0--0--0--
--0--0--0--0--
--6--6--6--6--
--6--6--6--6--
--4--4--4--4--
--------------

guitar2 sarts to play at the * :

--12----12----12----12----12----12-----
-----12----12----12----12----12----12--
---------------------------------------
---------------------------------------
---------------------------------------
---------------------------------------


BRIDGE:
           B5  A5  Abm5 F#m5  B5 A5  Abm5 F#m5
---------------------------------------------
--5------------------------------------------
----4--6s------------------------------------
------------9---7---6---4-----9---7---6---4--
------------9---7---6---4-----9---7---6---4--
------------7---5---4---2-----7---5---4---2--


CHORUS:

  E      F#m5     A              E
--0--0-------0----0-------(0--)--0--0---------------
--0----0-------0--2--3--2-(--0)--0----0-------------
--1---------------2--------------1------------------
--2-------4-------2--------------2-----------0h2----
--2-------4-------0--------------2-------0h2--------
--0-------2----------------------0---------------0--

  E      F#m5     A             =20
--0--0-------0----0-------(0--)--
--0----0-------0--2--3--2-(--0)--
--1---------------2--------------
--2-------4-------2--------------
--2-------4-------0--------------
--0-------2----------------------

   G                 F#m5
--*12-------------------------------
------12--14--14b15--b15r14--12-----
--------------------------------13~-
------------------------------------
------------------------------------
------------------------------------

a 2nd guitar plays down an octave at the* :

  G            F#m5
---------------------------
--5------------------------
----4--6--6b7--b7r6--4-----
-----------------------6~--
---------------------------
---------------------------


SOLO:=20
chords are E / G / A / E (x3) E / G / A / C / D / E

a guitar plays this fill along:

-------------------
-------------------
-------------------
------0h2---2--2---
--0h2--------------
----------0--------


another guitar plays the solo a bit later:

--12--12s10----10s12~-----------------------------------
------------12-----------12s10----10s12~--12s10---------
----------------------12-------12---------------12--9~--
--------------------------------------------------------
--------------------------------------------------------
--------------------------------------------------------

----------------
----------------
----------------
--7h9-----------
------10~--7~s--
----------------

--12s10----10s12~---------------------------------------
--------12-----------12s10----10s12~--12--12s10---------
------------------12-------12-------------------12--9~--
--------------------------------------------------------
--------------------------------------------------------
--------------------------------------------------------

----------------
----------------
----------------
--7h9-----------
------10~--7~s--
----------------

--10--12r10----10s12~--15s17--17s15------------19--19s17--
------------12----------------------17--15s17~------------
----------------------------------------------------------
----------------------------------------------------------
----------------------------------------------------------
----------------------------------------------------------

--15--------12--12s10----15s17~--12--12s10----------------
-----15s17~-----------12-------------------12--10s12~-----
----------------------------------------------------------
----------------------------------------------------------
----------------------------------------------------------
----------------------------------------------------------

----------------------------------------------------------
--12s10------------------------------------------8--------
--------9--9----9--12~--9s7-------------------------------
-------------12-------------9--7s5--------5--7s9---9--7---
-----------------------------------7~--7~-----------------
----------------------------------------------------------

------------------------
------------------------
------------------------
--7s5-------------------
------7--5h7--5~--5~h7--
------------------------


CHORUS:

  E      F#m5     A        E
--0--0-------0----0--0-----0--0---0----
--0----0-------0--2----0---0----0---0--
--1---------------2--------1-----------
--2-------4-------2--------2-----------
--2-------4-------0--------2-----------
--0 ------2----------------0-----------

  E      F#m5     A        E
--0--0-------0----0--0-----0-----------
--0----0-------0--2----0---0-----------
--1---------------2--------1-----------
--2-------4-------2--------2-----------
--2-------4-------0--------2-----------
--0 ------2----------------0-----------

  E      F#m5     A        E
--0--0-------0----0--0-----0-----------
--0----0-------0--2----0---0-----------
--1---------------2--------1-----------
--2-------4-------2--------2-----------
--2-------4-------0--------2-----------
--0 ------2----------------0-----------=

  E      F#m5     A       
--0--0-------0----0--0-----
--0----0-------0--2----0---
--1---------------2--------
--2-------4-------2--------
--2-------4-------0--------
--0 ------2----------------


SOLO: chords are G / A / C / D / E

------------------------------------------------------
-----------8~--------------------------------8--------
--------------9s7------------------------7s9---9s7----
----5--7s9--------9--7s5------7s5------9-----------9--
--7----------------------7--7-----7--7----------------
------------------------------------------------------

----------------------
----------------------
----------------------
--7s5------7s5--------
------7--7-----7--7~--
----------------------


ENDING:

----0--------------------0--------------------0------
--0---0--------------3-----3--------------0-----0----
-------------------2---2-----2--------------1-----1--
------------0h2---------------------0h2--------------
--------0h2---------------------0h2------------------
----------------0-----------------------0------------

-------------------0--------------------0------
---------------3-----3--------------0-----0----
-------------2---2--------------------1--------
------0h2---------------------0h2--------------
--0h2---------------------0h2------------------
----------0-----------------------0------------=20

-------------------0--------------------0------
---------------3-----3--------------0-----0----
-------------2---2--------------------1--------
------0h2---------------------0h2--------------
--0h2---------------------0h2------------------
----------0-----------------------0------------=20

-------------------0------
---------------3-----3----
-------------2---2--------
------0h2-----------------
--0h2---------------------
----------0---------------

Then repeat this fill until the end
---------------0---------------------0----
-------------3---3---------------3-----3--
-------------------------------2---2------
------0h2---------------0h2---------------
--0h2---------------0h2-------------------
----------0-----------------0-------------


In the end, another guitar plays this in the background:

--------------------------------
--------------------------------
--13b14--13--9~--13b14--13--9~--
--------------------------------
--------------------------------
--------------------------------

--------------------
--------------------
--9~--11~--9~--11~--repeat until the end
--------------------
--------------------
--------------------


ENJOY!!!





Comments


Popular Oasis tabs & chords
(I Got) The Fever Chords
Cast No Shadow 3 Chords
Shakermaker 1 Chords
Stop Crying Your Heart Out Chords
Angel Child 2 Tabs
Cast No Shadow Remix Tabs
Falling Down Tabs
Guess God Thinks Im Able Tabs
Dont Look Back In Anger Ukulele
Importance Of Being Idle Ukulele


Song lyrics



↑ Back to top | Tablatures and chords are parodies/interpretations of the original songs. You may use it for private study, scholarship, research or language learning purposes only
© 2014 AZChords.com Contact us | Privacy policy | DMCA | Add/correct tabs | Request tabs | Top 50 tabs