» » »

Oasis, Roll It Over Bass tabs (ver.1)

Artists:  A B C D E F G H I J K L M N O P Q R S T U V W X Y Z # 

Roll It Over Bass tabs (ver.1)

Oasis Tabs
 Rating:
4/5 (4 votes)
Roll It Over lessons Tabs too difficult? Try these video lessons and learn fast
1
                Roll It Over from the album Standing On the Shoulder of Giants.

r=rest h=hammeron

Intro and Verses

G /----------------------- Occasionally: G /---------------------------|
D /-----------------------               D /---------------------------|
A /-----------------------               A /---------------------------|
E /--9---9r-9---5---5r-5--               E /--9---9r-9---5---5r-5h7-5--|

Bridge

G /----------------------------|
D /----------------------------|
A /----------------------------|
E /-7--7-5--5-4--4-2--2--------|

Chorus

G /---------------------------------|
D /---------------------------------|
A /---------------------------------|
E /-O---Or-O---2---2r-2---5---5r-5--|

1st part of Solo (generally below)       (popular tail, although there is many)

G /--------------------------/              / --9-7---7-9-------/
D /--------------------------/              /-------9-----------/
A /-7(let ring)--5(let ring)-/              /------------5------/
E /--------------------------/              / ------------------/

2nd half of Solo

G /----------------------------------------------|
D /----------------------------------------------|
A /----------------------------------------------|
E /-3--3-3--5--5-5--8--8-8--10--10-10--12--12-12-|

The Chorus after the solo

G /-----------------------------------|
D /-----------------------------------|
A /-7--7-7--9--9-9--12--12-12--7--7-7-|
E /-----------------------------------|

After that Chorus, return to '1st part of Solo' where the tails and stuff like that return.
            
Submit corrections

comments powered by Disqus
↑ Back to top | Oasis Bass for Roll It Over. Lyrics for acoustic guitar and electric guitar. 1 Tablatures and chords are parodies/interpretations of the original songs. You may use it for private study, scholarship, research or language learning purposes only