» » »

Rock 'n' Roll Star Bass tabs (ver.3)

Artists:  A B C D E F G H I J K L M N O P Q R S T U V W X Y Z # 

Rock 'n' Roll Star Bass tabs (ver.3)

Oasis
Rating:
0/5 (0 votes)
Tabs too difficult? Try these video lessons and learn fast.
                "
INTRO
|--------------------------------------------------------|
|--------------------------------------------------------|
|---------------------2/14-------------------------------|
|--------------------------------------------------------|


MAIN RIFF (INTRO AND VERSES. ALSO SOLO)
|-----------------------------|------------------------------|
|-----------------------------|------------------------------|
|-------------------5h7-5-----|-------------------5h7-5------|
|7--7--5-7-5-7--5-7-------7-5-|7--7--5-7-5-7--5-7-------7-5--|

|------------------------------------------------------------|
|------------------------------------------------------------|
|-------------------------------------------------5h7-5------|
|9--9--9-9-9--5---5--5--5-5-5-|7--7--5-7-5-7--5-7-------7-5--|


BRIDGE
|--------------------------------------------------------|
|--------------------------------------------------------|  x3
|--------------------------2--2--2-2-2-2---2--2-2-2------|
|4--4--4-4-4--0--0--0-0-0--------------------------------|

|--------------------------------------------------------|
|--------------------------------------------------------|
|--------------------------------------------------------|
|5--5--5-5-5--5--5--5-5-5--2--2--2-2-2-2-2-2-2-2-2-2-----|


CHORUS
|--------------------------------------------------------|
|--------------------------------------------------------|
|--------------------------------------------------------|
|5--5--5-5-5--0--0--0-0-0--7--7--7-7-7-7--7-7-7-7-7------|
"            
Tabs too difficult? Try these video lessons and learn fast.


comments powered by Disqus
↑ Back to top | Tablatures and chords are parodies/interpretations of the original songs. You may use it for private study, scholarship, research or language learning purposes only