» » »

Oasis, Rock 'n' Roll Star Tabs (ver.3)

Artists:  A B C D E F G H I J K L M N O P Q R S T U V W X Y Z # 

Rock 'n' Roll Star Tabs (ver.3)

Oasis Tabs
 Rating:
4/5 (4 votes)
Rock 'n' Roll Star lessons Tabs too difficult? Try these video lessons and learn fast
                Oasis
Rock 'n' Roll Star
Written By Noel Gallagher


Chords Used

B    = 778997
E    = 779977
C#m7 = 446657
A5   = 577555
G#m  = 466444
F#   = 244322





*Intro*

Grt 1
e----------------------------------------------------------------------------------------
b----------------------------------------------------------------------------------------
g-------6b8---8~~~~----4~~~~~~-----------------4----6b8---8~~~~---4~~~~~~~~~~~-----------
d------------------------------------4--4h6----------------------------------------------
a----------------------------------------------------------------------------------------
E----------------------------------------------------------------------------------------



Grt 2         
e--------7--7-7---------7---7---------7--7-7----------7----------------------------------
b--------7--7-7---------7---7---------7--7-7----------7----------------------------------
g--------8--8-8---------9---9---------8--8-8----------9----------------------------------
d--------9--9-9---------9---9---------9--9-9----------9-------------------Pick Scr*pe----
a--------9--9-9---------7---7---------9--9-9----------7-------------------Pick Scr*pe----
E--------7--7-7---------7---7---------7--7-7----------7-------------------Pick Scr*pe----



*Second Part Of Intro*

Gtr 1
e--------7-7-7-7-7-7-7----7-7-7-7--------7-7-7-7-7-7-7---7-7-7-7--------4-4-4-4-4---5-5-5-5-5-5-5--
b--------7-7-7-7-7-7-7----7-7-7-7--------7-7-7-7-7-7-7---7-7-7-7--------5-5-5-5-5---5-5-5-5-5-5-5--
g--------8-8-8-8-8-8-8----9-9-9-9--------8-8-8-8-8-8-8---9-9-9-9--------6-6-6-6-6---5-5-5-5-5-5-5--
d--------9-9-9-9-9-9-9----9-9-9-9--------9-9-9-9-9-9-9---9-9-9-9--------6-6-6-6-6---7-7-7-7-7-7-7--
a--------9-9-9-9-9-9-9----7-7-7-7--------9-9-9-9-9-9-9---7-7-7-7--------7-7-7-7-7---7-7-7-7-7-7-7--
E--------7-7-7-7-7-7-7----7-7-7-7--------7-7-7-7-7-7-7---7-7-7-7--------7-7-7-7-7---5-5-5-5-5-5-5--

Gtr 2

e--------7-7-7-7-7-7-7-------------------7-7-7-7-7-7-7------------------0-0-0-0-0-0-0-0-0-0-0-0-0------
b--------7-7-7-7-7-7-7-------------------7-7-7-7-7-7-7------------------0-0-0-0-0-0-0-0-0-0-0-0-0------
g--------8-8-8-8-8-8-8--9b11-9b11-9b11---8-8-8-8-8-8-8--9b11-9b11-9b11--8h9-9-9-9-9-8-9-9-8-9-9-9------
d--------9-9-9-9-9-9-9-------------------9-9-9-9-9-9-9-------------------------------------------------
a--------9-9-9-9-9-9-9-------------------9-9-9-9-9-9-9-------------------------------------------------
E--------7-7-7-7-7-7-7-------------------7-7-7-7-7-7-7-------------------------------------------------

Grt 1

e--------7-7-7-7-7-7-7----7-7-7-7-------
b--------7-7-7-7-7-7-7----7-7-7-7-------
g--------8-8-8-8-8-8-8----9-9-9-9-------
d--------9-9-9-9-9-9-9----9-9-9-9-------
a--------9-9-9-9-9-9-9----7-7-7-7-------
E--------7-7-7-7-7-7-7----7-7-7-7-------

Grt 2

e--------7-7-7-7-7-7-7------------------
b--------7-7-7-7-7-7-7------------------
g--------8-8-8-8-8-8-8--9b11-9b11-9b11--
d--------9-9-9-9-9-9-9------------------
a--------9-9-9-9-9-9-9------------------
E--------7-7-7-7-7-7-7------------------

Second Part of intro is how verses are played 

*Verse 1*

B                         E
I live my life in the city   

B                         E
there's no easy way out

C#m7            A5                  B      E
The days moving just too fast for me

B                             E
I Need some time in the sunshhyinnne  

B                         E
gotta slow it right down

C#m7            A5                  B      
The days moving just too fast for me

*Bridge 1*  

  G#m              E
I live my life for the stars that shine

B
People say its just a waste of time

G#m                E
When they said I should just feed my head 

B                    
That to me was just a day in bed

     G#m             E
I'll take my car and drive real far

                 B                                     
Your not concerned about the way we are 
 
A5                   
Coz In my mind my dreams are real

F#                        
Are you concerned about the way I feel ?

*Chorus 1*
 
A5       E                   B            E
To-night  I'm a rock'n'roll star
A5       E                   B
To-night  I'm a rock'n'roll star          E


*Verse 2*

B                         E
I live my life in the city   

B                         E
there's no easy way out

C#m7            A5                  B     E
The days moving just too fast for me

B                          E
I Need some time in the sunshhyinnne  

B                         E
gotta slow it right down

C#m7            A5                  B     E
The days moving just too fast for me

*Bridge 2*
 
  G#m              E
I live my life for the stars that shine

B
People say its just a waste of time

G#m                E
When they said I should just feed my head 

B                    
That to me was just a day in bed

     G#m             E
I'll take my car and drive real far

                 B                                     
Your not concerned about the way we are 
 
A5                   
Coz In my mind my dreams are real

F#                        
Now yer concerned about the way I feel ?
 
*Chorus 2*

A5       E                   B            E
To-night  I'm a rock'n'roll star

A5       E                   B            E
To-night  I'm a rock'n'roll star

A5       E                   B            E
To-night  I'm a rock'n'roll star

*Middle*

A5                   
You're not down with who I am
E                                                B
Look at you'll now you're all in my hands  tonight.
 


solo:
    B                  E       B                    E       C#m7                A5 
e-----------------------------------------------------------0-0--0-0-0--0-0-0-0-0-0-0-------------------------
b---------------------------------------------10------------0-0--0-0-0--0-0-0-0-0-0-0-------------------------
g---7h8p7------------7-----7h8p7--------9s11-------11--9s8--8h9--9-9-9--8-9-9-8-9-9-9----Repeat once more then
d----------9-9--7-9-----9----------9-9------------------------------------------------------------------------
a-------------------------------------------------------------------------------------------------------------
E-------------------------------------------------------------------------------------------------------------

    B                  E
e-------------------------
b-------------------------
g---7h8p7------------7----
d----------9-9--7-9-----9-
a-------------------------
E-------------------------

*Chorus 3*

A5       E                   B            E
To-night  I'm a rock'n'roll star
A5       E                   B            E
To-night  I'm a rock'n'roll star
A5       E                   B            E
To-night  I'm a rock'n'roll star.
 


After Chorus No. 3 theres another solo i dont know what it is.
but on familiar 2 millions noel plays the A5 chord with wah wah
this sounds just as good.




*then Outro*

Repeat this over
the lyrics 

Grt1

e--------9--9--9--9---7------
b--------9--9--9--9---7------
g--------11-11-11-11--9------
d--------11-11-11-11--9------
a--------9--9--9--9---7------
E--------9--9--9--9---7------

Gtr 2

e--------2--2--2--2---0-----------
b--------2--2--2--2---0-----------
g--------2--2--2--2---1-----------
d--------4--4--4--4---2-----------
a--------4--4--4--4---2-----------
E--------2--2--2--2---0-----------






Its just rock n roll

Its just rock n roll

Its just rock n roll

Its just rock n roll

ect.


Craig Barker


this how i play it any way
            
Submit corrections

comments powered by Disqus
↑ Back to top | Oasis Tabs for Rock 'n' Roll Star. Lyrics for acoustic guitar and electric guitar. Tablatures and chords are parodies/interpretations of the original songs. You may use it for private study, scholarship, research or language learning purposes only