» » »

Hung In A Bad Place Tabs (ver.1)

Artists:  A B C D E F G H I J K L M N O P Q R S T U V W X Y Z # 

Hung In A Bad Place Tabs (ver.1)

Oasis
Rating:
0/5 (0 votes)

Hard to play? Try these video lessons and learn fast.
                PROPS GO TO: Bob

Hung In A Bad Place – Oasis 


Intro: F# B (x6) 
e------------------------ 
b------5------5---------- 
g—-s6-----s6------------- 
d------------------------ 
a------------------------ 
E------------------------ 

F# B F# B 
I can go where I wanna Be who I wanna be now. 
F# B F# B 
I can sleep under water Never worry what I'm gonna dream now 
F# B F# B 
Yeah the times come and go And I know where I'm from I can be so 
F# B F# B 
It's "Hasta Mañana", you're on your own banana skin feet now 

F# B F# B 
Yeh I been, Huuuuung in a bad place Had no sun on my face 
F# B F# 
I been, Huuuuung in a bad place For too long 

Bass solo: 
e---------------------------- 
b---------------------------- 
g---------------------------- 
d-----------------2--4------- 
a--------0--2--4------------- 
E--2--4---------------------- 

I can say what I wanna Feel how I wanna feel now 
I can squeeze all the hours and tears to devour with ease you know 
I can sit in the trees i'm not on my knees for free Yeah Yeah 
You've been blocked and yer stallin Nature is calling for me 
Yooooouuuuuu got me! 

F# B F# B 
Yeh I been, Huuuuung in a bad place Had no sun on my face 
F# B F# 
I been, Huuuuung in a bad place For too long 

e------------------------------------------------- 
b------------------------------------------------- 
g----------------------------2-----2-----2-----2-- 
d-----------------2--4---2h4---2h4---2h4---2h4---- 
a--------0--2--4---------------------------------- 
E--2--4------------------------------------------- 
F# B F# B F# B 
e---------------------------------------------------------------------- 
b--10--7-----10--7----10--7-----10--7----10--7----10--10b12-p-7-------- 
g---------9------------------9------------------9---------------------- 
d---------------------------------------------------------------------- 
a---------------------------------------------------------------------- 
E---------------------------------------------------------------------- 

Scale bit: F# // G# // A // B // C# // E // F# // 

With this very unlike-oasis unison bend over the top of it: 

e--9--------9------------- 
b--12b14----12b14--------- 
g------------------------- 


Then this 4 times 

F# B 
Aaaaaaaaaaahhhhhhh aaaaaaaaaahhhhhhhhhh 
e-------------------------------------------------------- 
b-------------------------------------------------------- 
g—4b6--2-----4b6--2------4b6--2-------4b6--2------------- 
d---------4----------4------------4-----------4---------- 
a-------------------------------------------------------- 
E-------------------------------------------------------- 

F# B F# B 
Yeh I been, Huuuuung in a bad place Had no sun on my face 
F# B F# 
I been, Huuuuung in a bad place For too long 

For too long For too long For too long For too long 
For too long For too long For too long For too long 
For too loo~o~o~o~o~o~o~ng.. 

Ending: 

F# G# A B C# E F# E C# B A G# 

F# G# A B C# E F# E B 

With another unison bend this time: 

e----------------------- 
b--7-----7-----7-------- 
g—-9b11—-9b11—-9b11-----
            
Hard to play? Try these video lessons and learn fast. | Correct




comments powered by Disqus
↑ Back to top | Tablatures and chords are parodies/interpretations of the original songs. You may use it for private study, scholarship, research or language learning purposes only