» » »

Oasis, Hung In A Bad Place Tabs (ver.3)

Artists:  A B C D E F G H I J K L M N O P Q R S T U V W X Y Z # 

Hung In A Bad Place Tabs (ver.3)

Oasis Tabs
Rating:
0/5 (0 votes)
Hung In A Bad Place lessons Tabs too difficult? Try these video lessons and learn fast
                Written by Gem Archer

Hung in a Bad Place Live Version
--------------------------------

Intro
-----

  E    B    E    B
e-------------------
B-------------------
G------4-4-------4-4
D-4-4--4-4--4-4--4-4
A-4-4--2-2--4-4--2-2
E-2-2-------2-2-----

then

Live Ritmn
----------

  F#             B              E              B
e-----------------------------------------------------------
B-----------------------------------------------------------
G----------------4-4-4-4-4-4-4--4-4-4-4-4-4-4--4-4-4-4-4-4-4
D-4-4-4-4-4-4-4--4-4-4-4-4-4-4--2-2-0-2-2-2-0--4-4-4-4-4-4-4
A-4-4-4-4-4-4-4--2-2-0-2-2-2-0-----------------2-2-0-2-2-2-0
E-2-2-0-2-2-2-0--------------------------------------------- etc

thax, thats all
            

comments powered by Disqus
↑ Back to top | Oasis Tabs for Hung In A Bad Place. Lyrics for acoustic guitar and electric guitar. Tablatures and chords are parodies/interpretations of the original songs. You may use it for private study, scholarship, research or language learning purposes only